Tlc - No Scrubs Chords & Tabs

 

No Scrubs Chords & Tabs

Tlc Chords & Tabs

Version: 2 Type: Tab 0 ratings
1 star 2 stars 3 stars 4 stars 5 stars
comments

No Scrubs Tab

|----------------|
|Artist: TLC     |
|Title: No Scrub |
|Album: Fan Mail |
|----------------|


Tune each string down 1/2 step.
There is one basic riff which is repeated continuously throughout the entire song:


[ Tab from: http://www.guitartabs.cc/tabs/t/tlc/no_scrubs_tab_ver_2.html ]
Eb---------------------------------------------------------------------
Bb------------6---------------5---------------0---------------5--------
Gb---------5-----------------------------------------------------------
Db------7------------------7---------------2---------------7-----------
Ab---5------------------7---------------2---------------7--------------
Eb-------------------5---------------0---------------5-----------------

Eb---------------------------------------------------------------------
Bb------------6---------------5---------------0------8--6--5-----5-----
Gb---------5--------------------------------------------------7--------
Db------7------------------7---------------2---------------------------
Ab---5------------------7---------------2------------------------------
Eb-------------------5---------------0---------------------------------


Questions, Comments send to -------> jerrybean@hotmail.com
Comments