Tito And Tarantula - After Dark Chords & Tabs

 

After Dark Chords & Tabs

Tito And Tarantula Chords & Tabs

Version: 1 Type: Tab 0 ratings
1 star 2 stars 3 stars 4 stars 5 stars
comments

After Dark Tab



TITO AND TARANTULA AFTER DARK INTRO



 
     INTRO PICKED            STRAIGHT IN TO THE CHORDS     
E:---------9--10--9------------1---------1-------1---------1-------------------
B:---7S-9-----------9--7-------3----1----3---1---3----1----3---1---------------
G:-----------------------7-----3----1----3---1---3----1----3---1h2-po-1--------
D:-----------------------------3----1----3---1---3----1----3---1---------------
A:-----------------------------3---------3-------3---------3-------------------
E:-----------------------------1---------1-------1---------1-------------------
 

  [   FILL       ]    BACK TO RYTHUM   
E:-------------3------1-----------1----------------1---------------------------
B:-------------3------3-----1-----3----1-----------3---1-----------------------
G:--1----------4------3-----1-----3----1-H2 PO 1---3---1-----------------------
D:--2----------5------3-----1-----3----1-----------3---1-----------------------
A:--2----------5------3-----------3----------------3---------------------------
E:-------------1------1-----------1----------------1---------------------------

  YOU WILL HAVE TOLISTEN TO THE SONG TO GET THE RYTHUM BUT ITS EASY


SOLO   HEAVY DISTORTION  WITH PLENTY OF REVERB
[ Tab from: http://www.guitartabs.cc/tabs/t/tito_and_tarantula/after_dark_tab.html ]
E:----------------------------------------------------------------------------
B:----------------------------------------------------------------------------
G:----------11--po9---------------------------11-po-9-9------------------11---
D:--------------------9----------------------------------9-9--12--9-----------
A:-7--S--9----------------------------7--9-9--------------------------7-------
E:-----------------------7---10---10------------------------------------------



E:-------------------------
B:-------------------------
G:---11^--9--11^--9--11^---
D:-------------------------
A:-------------------------
E:-------------------------


E :-----------------------|----7-10---------7-|h10-7~-11^-13^-7--------|
B :-----7-10^-------------|-------------------|------------------------|
G :9-11-------11----------|9------------------|------------------------|
D :--------------9-h12-12-|--9------9-12-12---|-----------------9-12-9-|
A :-----------------------|-------------------|------------------------|
E :-----------------------|-------------------|------------------------|

E :------------------|
B :------------------|
G :9^----------------|
D :---9-12-9---------|
A :------------------|
E :------------------|

THEN BACK TO RYTHUM AND FILL

I WONT PUT THE LYRICS UP COS THERE ALREADY ON THE SITE

THIS VERSION IS CORRECT, 

THIS IS ONE COOL TRACK AND WHEN PLAYED PROPERLY WILL BLOW YOU AWAY .ENJOY  

WINGCHUNH@HOTMAIL.COM  IF YOU NEED TO CONTACT ME 
Comments