Title In Progress - Gingerbread Man Chords & Tabs

 

Gingerbread Man Chords & Tabs

Title In Progress Chords & Tabs

Version: 1 Type: Tab 0 ratings
1 star 2 stars 3 stars 4 stars 5 stars
comments

Gingerbread Man Tab

verse
e|---------------------------
b|-----------------------------
g|--4-----7--------------------
d|--4-----7-----7----5------------
a|--2-----5-----7----5-----------
e|--------------5----3---------
[ Tab from: http://www.guitartabs.cc/tabs/t/title_in_progress/gingerbread_man_tab.html ]
chorus
e|--------------------------------
b|----------------------------------
g|-----------------7-------4------------
d|--5------7-------7-------4-------------
a|--5------7-------5-------2-----------
e|--3-----5-------------------------

chorus
every body wants the gingerbread
every body needs the gingerbread
every body loves the gingerbread man !
Comments