Titiyo - Come Along Chords & Tabs

 

Come Along Chords & Tabs

Titiyo Chords & Tabs

Version: 1 Type: Chords 0 ratings
1 star 2 stars 3 stars 4 stars 5 stars
comments

Come Along Chords

   
Titiyo - Come Along


Accordage : E A D G B E 	Signature Rythmique: 4/4

 ____1,2,3
|
 |       |       |       |        |       |       |       |        
|--------------------------------|--------------------------------|
|--------------------------------|--------------------------------|
|--------------------5-----------|--------------------5-----------|
|------------4>6-------------3---|------6>8-------6-----------3---|
|--------------------------------|--------------------------------|
|--------------------------------|--------------------------------|
                           ______ ___4 
                                 |
 |       |       |       |        |       |       |       |        
|--------------------------------|--------------------------------|
|--------------------------------|--------------------------------|
|--------------------5-------6---|--------------------------------|
|------------4>6-----------------|--------------------6-------3---|
|--------------------------------|--------------------------------|
|--------------------------------|--------------------------------|
                           ______			
 |       |       |       |       |         
|--------------------------------|
|--------------------------------|...Le petit riff sympathique
|--------------5-----------------| qu'on retrouve plein de fois...
|------6>8>6---------3-----------|
|--------------------------------|
|--------------------------------|

 

Les accords :	Fm : 122111
		Cm : 335543
		D  : 446664
[ Tab from: http://www.guitartabs.cc/tabs/t/titiyo/come_along_crd.html ]
Fm		Cm		Fm  		Cm
Play with it while you have hands
Fm		Cm		Fm  		Cm
Dust settles, cities turn to sand
Fm		Cm		Fm  		Cm
Trespassing this is their land
D				Ab	Fm
Time flies, make a statement, take a stand

Fm		
Come along now
Cm
Come along with me
Fm
Come along now 
Cm
Come along and you´ll see 
Fm	    Cm		Fm	Cm
What it´s like to be free


Fm		
Come along 
Cm
Come along with me
Fm
Come along now 
Cm
Come along and you´ll see 
Fm	    Cm		Fm	Cm
What it´s like to be free

A#m
Come along now 
D#
Come along with me
Ab#m	  C#m
And I´ll ease your pain
A#m
Come along
D#
Come along with me
Ab#m      C#m
And let´s seize this day
A#m	    C#m		    
Come along, come along with me
		    Fm
Oh, come along with me


Stay out stay clear but stay close
Friends, foes, God only knows
Lets be the thorn on the rose
Time flies, make a statement, strike a pose

Come along now
Come along with me
Come along now 
Come along and you´ll see 
What it´s like to be free

Come along 
Come along with me
Come along now
Come along and you´ll see what it´s like to be free

Come along now 
Come along with me
And I´ll ease your pain
Come along
Come along with me
And let´s seize this day
Oh, Come along with me

Time flies, make a statement, take a stand x 3
Time flies, take your chance

Come along now
Come along with me
Come along now 
Come along and you´ll see 
What it´s like to be free

Come along now 
Come along with me
And I´ll ease your pain
Come along
Come along with me
And let´s seize this day
Oh, Come along with me
Comments