Titas - Pra Dizer Adeus Chords & Tabs

 

Pra Dizer Adeus Chords & Tabs

Titas Chords & Tabs

Version: 1 Type: Bass Tab 0 ratings
1 star 2 stars 3 stars 4 stars 5 stars
comments

Pra Dizer Adeus Bass Tab

==============================
http://www.baixistas.cjb.net/

Banda: Titãs
Música: Prá dizer adeus
==============================

   RIFF 1:
G --0----------------------------------------------------------------------------
D -----2--0-----0--0\2---0-------------------------------------------------------
A -----------2--------------2--------------0--2--------------0--2--5--5--5-----0-
E -----------------------------3--3--3--3--------3--3--3--3-----------------3----                                                                              


G -------------------
D -------------------
A --2----------------
E -----3--5--3--2----
                                                                               
[ Tab from: http://www.guitartabs.cc/tabs/t/titas/pra_dizer_adeus_btab.html ]
   RIFF 2:
G -------------------------------------------------------------------------------
D --0--0--0-----------------0--0--0--0-------------------------------------------
A -----------0--2--3--3--3--------------0--2--3--3--3--------5--5--5--0--3--3--3-
E -----------------------------------------------------3--3----------------------
                                                                                

G -------------------------------------------------------------------------------
D --------------------0--2--0--------------0--2--0-------------------------------
A --3--3--0--------------------2--------------------2----------------------------
E -----------3--3--3--------------3--3--3--------------3--3--3-------------------
                                                                                

   RIFF 3:
G -------------------------------------------------------------------------------
D -----------------------------------------------------------------------0--2--0-
A -----------------2--2--2--2--2--3--3--3--3--------5--5--3--3-------------------
E --3--3--3--3--3-----------------------------3--3--------------3--3--3----------
                                                                                

G ------------
D ------------
A --2---------
E -----3--3--3
             

Comments