Titas - Marvin Chords & Tabs

 

Marvin Chords & Tabs

Titas Chords & Tabs

Version: 2 Type: Bass Tab 0 ratings
1 star 2 stars 3 stars 4 stars 5 stars
comments

Marvin Bass Tab

   
Titãs - Marvin
                     
 
  Riff A
G|------------|
D|-0-2-3--0-3-|
A|------------|
E|------------|

  Riff B 
G|-0-0--0---0-0----------------------------------|
D|--------3------0-2-3--0--3-3--3-0-3-3--0-2-3-0-|
A|-----------------------------------------------|
E|-----------------------------------------------|

  Riff C
G|---------------------------------------------|
D|-----1---1-----------------3---3-------------|
A|-3-3---3---3--3-3--1---3-3---3---3--3-3--1---|
E|---------------------------------------------|
[ Tab from: http://www.guitartabs.cc/tabs/t/titas/marvin_btab_ver_2.html ]
  Riff D
G|---------------------------------------------------------------------------|
D|---------------------------------------------------------------------------|
A|-3-3-1-3-1-3-3-1-3-0--2-2-0-2-0-2-2-0-2-0--------------------0--0-0--------|
E|-------------------------------------------6-6-4-6-4-6-6-4-6--------3-1--1-|

  Riff E
G|------------|
D|----0--2--0-|
A|-4----------|
E|------------|

 Ordem de Riffs (escute a música para melhor compreensão) :
 
 A B(5x) C(2x)
 D E
 B(5x) C(2x)
 D E
 
 D (tocando mais leve essa parte)

 B(3x) C(2x)
 D E
 B(8x)
 ...
Comments