Timoria - Sole Spento Chords & Tabs

 

Sole Spento Chords & Tabs

Timoria Chords & Tabs

Version: 4 Type: Tab 0 ratings
1 star 2 stars 3 stars 4 stars 5 stars
comments

Sole Spento Tab

   
Artist: TIMORIA 
Song: SOLE SPENTO 
Tabbed by: Guido Iozzelli 
E-mail me at guidoiozzelli@hotmail.com 

standard tuning (eBGDAE) 

INTRO, riff1 

e|-----3---3333-0--------------------| 
B|---------0000-0--------2---3333-2--| 
G|---4-----4444-2------2-----2222-2--| 
D|-2-------2222-2----2-------2222-2--|  x2 
A|-----------------------------------| 
E|-----------------------------------| 

VERSE: 

They play riff1: 
Ci sono giorni in cui mi sveglio spento 
E tutto sommato provo a starci dentro 

Then they play something like this...you can create the riff you prefer with  
these chords, 
however I think that this one sounds good... 
  riff2: 
   C                                  D                    Em7      C   Em7   
          C 
e|------------0------------------0-------------0-----------3--------0-------3---------0-| 
B|---------------1------------------1------3----3--(3)-----3-----3--1-------3-----3---1-| 
G|-------------------------0-------------2---2----2--------0---0----0-------0---0-----0-| 
D|-------2-------------2--------------0--------------------2-2------2-------2-2-------2-| 
A|-3-----------------------------------------------------2----------3-----2-----------3-| 
E|-----------------------------------------------------0----------------0---------------| 

   Nella mia stanza aspetto il mio  
momento.....sono....qui...apetter˛...io....aspetter˛ 

        riff1 
Quando la vita sembra un treno lento 
Penso agli amici fuori e muoio dentro 

riff2 
La mia generazione senza vento 
Sono qui...aspetter˛ 
Io...aspetter˛ 

CHORUS: 

play with heavy distortion 
[ Tab from: http://www.guitartabs.cc/tabs/t/timoria/sole_spento_tab_ver_4.html ]
   C    D      E             D           C             D         Eb 
e|-----------|---------------------------------------------------------| 
B|-----------|---------------------------------------------------------| 
G|-5555-7777-|-9-9-9-9-9-9-9-7-7-7-7-7-7-5-5-5-5-5-5-5/7-7-7-7-7-8-8-8-| 
D|-5555-7777-|-9-9-9-9-9-9-9-7-7-7-7-7-7-5-5-5-5-5-5-5/7-7-7-7-7-8-8-8-| 
A|-3333-5555-|-7-7-7-7-7-7-7-5-5-5-5-5-5-3-3-3-3-3-3-3/5-5-5-5-5-6-6-6-| 
E|-----------|---------------------------------------------------------| 
               FinchŔ arriverÓ il mio momento..........stammi accanto 

   E             D           C 
e|------------------------------------------------------------------| 
B|------------------------------------------------------------------| 
G|-9-9-9-9-9-9-9-7-7-7-7-7-7-5-5-5-5-5-5-5-5-5-5-5-5-5-5-5-5-5-5-7/9| 
D|-9-9-9-9-9-9-9-7-7-7-7-7-7-5-5-5-5-5-5-5-5-5-5-5-5-5-5-5-5-5-5-7/9| 
A|-7-7-7-7-7-7-7-5-5-5-5-5-5-3-3-3-3-3-3-3-3-3-3-3-3-3-3-3-3-3-3-5/7| 
E|------------------------------------------------------------------| 
   Col pensiero tu stammi accanto...sole spento...io ti sento...con me 

After chorus you have to play riff1 with distortion 


LYRICS: 

verse1: 
Ci sono giorni in cui mi sveglio spento 
E tutto sommato provo a starci dentro 
Nella mia stanza aspetto il mio momento 
Sono qui apetter˛ 
Io aspetter˛ 

verse2: 
Quando la vita sembra un treno lento 
Penso agli amici fuori e muoio dentro 
La mia generazione senza vento 
Sono qui aspetter˛ 
Io aspetter˛ 

chorus: 
FinchŔ arriverÓ 
Il mio momento 
Stammi accanto 
Col pensiero tu 
Stammi accanto 
Sole spento 
Io ti sento 
Con me 

verse 3: 
Quando sei condannato al pentimento 
                            (sole spento) 
Stanco di sentir dire non ho tempo 
Come in un sole in cui sentire freddo 
    (qui)         (aspetter˛) 
Sono qui aspetter˛ 
            (aspetter˛) 
Io aspetter˛ 

chorus: 
FinchŔ arriverÓ 
Il mio momento 
Stammi accanto 
Col pensiero tu 
Stammi accanto 
Sole spento 
Io ti sento 
Con me 

verse 4 (just the second part): 
Qui aspetter˛ 
Io aspetter˛ 

chorus 2: 
FinchŔ arriverÓ 
Il mio momento 
Stammi accanto 
Col pensiero tu 
Stammi accanto 
Sole spento 
Tu sei dentro 
Di me 



Comments