Timoria - Sole Spento Chords & Tabs

 

Sole Spento Chords & Tabs

Timoria Chords & Tabs

Version: 1 Type: Tab 0 ratings
1 star 2 stars 3 stars 4 stars 5 stars
comments

Sole Spento Tab

   
TIMORIA
Sole spento

Transcribed by Gianmarco Bogarelli (E-mail: Kurt.cobain@virgilio.it)


Riff 1
|--------0------3-3-3-3-0------------------0-0-0-0-0-----
|-----0---------0-0-0-0-0-----------2------2-2-2-2-0-----
|--------------------------------2-----------------------
|--2-----------------------------------------------------
|-----------------------------0--------------------------
|--------------------------------------------------------

Riff 2  
   C                     D
|-----------0-0-0-0-0-------------2-2-2-2-2--------------
|------1----1-1-1-1-1--------3----3-3-3-3-3--------------
|----0------0-0-0-0-0------2------2-2-2-2-2--------------
|------------------------0-------------------------------
|--3-----------------------------------------------------
|--------------------------------------------------------
   Em                    C
|-----------0-0-0-0-0-------------0-0-0-0-0--------------
|-----------0-0-0-0-0--------1----1-1-1-1-1--------------
|------0----0-0-0-0-0------0------0-0-0-0-0--------------
|----2---------------------------------------------------
|--2---------------------3-------------------------------
|--------------------------------------------------------
   Em                    C
|-----------0-0-0-0-0-------------0----------------------
|-----------0-0-0-0-0--------1----1----------------------
|------0----0-0-0-0-0------0---0--0----------------------
|------2-------------------------------------------------
|----2-------------------3-------------------------------
|--0-----------------------------------------------------

Riff 3
   C                     D
|-----------0-0-0-0-0-------------2-2-2-2-2--------------
|------1----1-1-1-1-1--------3----3-3-3-3-3--------------
|----0------0-0-0-0-0------2------2-2-2-2-2--------------
|------------------------0-------------------------------
|--3-----------------------------------------------------
|--------------------------------------------------------
   Em                    C
|-----------0-0-0-0-0-------------0-0-0-0-0--------------
|-----------0-0-0-0-0--------1----1-1-1-1-1--------------
|------0----0-0-0-0-0------0------0-0-0-0-0--------------
|----2---------------------------------------------------
|--2---------------------3-------------------------------
|--------------------------------------------------------
   Em                    C       D5
|-----------0-0-0-0-0------------------------------------
|-----------0-0-0-0-0------------------------------------
|------0----0-0-0-0-0----0-0-0-0-7-7-7-7-----------------
|----2-------------------2-2-2-2-7-7-7-7-----------------
|--2---------------------3-3-3-3-5-5-5-5-----------------
|--------------------------------------------------------
[ Tab from: http://www.guitartabs.cc/tabs/t/timoria/sole_spento_tab.html ]
Riff 4
   E5         A5         C5        D5   E5
|--------------------------------------------------------
|--------------------------------------------------------
|--9----------2----------5----------7---9----------------
|--9----------2----------5----------7---9----------------
|--7----------0----------3----------5---7----------------
|--------------------------------------------------------
 Finchè arriverà...
   E5      A5      C5                           Em
|--------------------------------------------------------
|--------------------------------------------------------
|--9-------2-------5-5-5-5-5-5-5-5-----------------------
|--9-------2-------5-5-5-5-4-4-4-4-- x 4 -------2--------
|--7-------0-------3-3-3-3-3-3-3-3--------------2--------
|-----------------------------------------------0--------
 Col pensiero tu...

Riff 5
   Em                    C
|-----------0-0-0-0-0-------------0-0-0-0-0--------------
|-----------0-0-0-0-0--------1----1-1-1-1-1--------------
|------0----0-0-0-0-0------0------0-0-0-0-0--------------
|----2---------------------------------------------------
|--2---------------------3-------------------------------
|--------------------------------------------------------
   Em                    C       D5
|-----------0-0-0-0-0------------------------------------
|-----------0-0-0-0-0------------------------------------
|------0----0-0-0-0-0----0-0-0-0-7-7-7-7-----------------
|----2-------------------2-2-2-2-7-7-7-7-----------------
|--2---------------------3-3-3-3-5-5-5-5-----------------
|--------------------------------------------------------



Riff 1  (x2)

Riff 1  (x2)
Ci sono giorni in cui mi sveglio spento
E tutto sommato provo a starci dentro

Riff 2
Nella mia stanza aspetto il mio momento
Sono qui...aspetterò
Io...aspetterò

Riff 1  (x2)
Quando la vita sembra un treno lento
Penso ai miei amici fuori e muoio dentro

Riff 3
La mia generazione è senza vento
Sono qui...aspetterò
Io...aspetterò

Riff 4
Finchè arriverà, il mio momento, stammi accanto
Col pensiero, tu, tu stammi accanto
Sole spento...Io ti sento con me

Riff 1 (x2)

Riff 1 (x2)
Quando sei condannato al pentimento
Stanco di sentir dire "Non ho tempo"

Riff 3
Come in un sole in cui sentire freddo
Sono qui...aspetterò [aspetterò]
Io...aspetterò [aspetterò]

Riff 4
Finchè arriverà, il mio momento, stammi accanto
Col pensiero, tu, tu stammi accanto
Sole spento...Io ti sento con me [con me]

Riff 1 (x6)

Riff 5
Io...aspetterò [aspetterò]
Io...aspetterò

Riff 4
Finchè arriverà, il mio momento, stammi accanto
Col pensiero, tu, tu stammi accanto
Sole spento...Tu sei dentro di me




N.B: I Riff 2-3-5 non sono proprio identici all'originale, ma suonano ugualmente
     bene! Cmq per errori mandatemi una E-mail
Comments