Timo Kotipelto - Can You Hear The Sound Chords & Tabs

 

Can You Hear The Sound Chords & Tabs

Timo Kotipelto Chords & Tabs

Version: 1 Type: Tab 0 ratings
1 star 2 stars 3 stars 4 stars 5 stars
comments

Can You Hear The Sound Tab

   
KOTIPELTO - Can You Hear The Sound
from the Coldness (2004) record
tabbed by loveandtrust@pobox.sk

Intro/Chorus:
E--------------------------------)-------------------------------------)
B--------------------------------)-------------------------------------)
G-7------------------------------)-------------------------------------)
D-7------------------------------)-------------------------------------)
A-5--5-5-5-5-5-5-5-5-5-5-5-5-5-5-)-5-5-5-5-7-7-7-7-8-8-8-8-10-10-10-10-)
E--------------------------------)-------------------------------------)

E--------------------------------)--------------------)
B--------------------------------)-6------------------)
G-7------------------------------)-5--------5---------)
D-7------------------------------)-3--------5---------)
A-5--5-5-5-5-5-5-5-5-5-5-5-5-5-5-)----------3---------)
E--------------------------------)--------------------)

E--------------------------------)-------------------------------------)
B--------------------------------)-------------------------------------)
G-7------------------------------)-------------------------------------)
D-7------------------------------)-------------------------------------)
A-5--5-5-5-5-5-5-5-5-5-5-5-5-5-5-)-5-5-5-5-7-7-7-7-8-8-8-8-10-10-10-10-)
E--------------------------------)-------------------------------------)

E--------------------------------)--------------------)
B--------------------------------)-6------------------)
G-7------------------------------)-5--------5---------)
D-7------------------------------)-3--------5---------)
A-5--5-5-5-5-5-5-5-5-5-5-5-5-5-5-)----------3---------)
E--------------------------------)--------------------)

E--------------------------------)-------------------------)
B--------------------------------)-------------------------)
G-3------------------------------)-----------------3---2---)
D-3------------------------------)-----------------3---2---)
A-1--1-1-1-1-1-1-1-1-1-1-1-1-1-1-)-1-1-1-1-1-1-1-1-1---0---)
E--------------------------------)-------------------------)
[ Tab from: http://www.guitartabs.cc/tabs/t/timo_kotipelto/can_you_hear_the_sound_tab.html ]
E--------------------------------)-------------------------------)
B--------------------------------)-------------------------------)
G--------------------------------)-------------------------------)
D-5------------------------------)-------------------------------)
A-5------------------------------)-------------------------------)
E-3--3-3-3-3-3-3-3-3-3-3-3-3-3-3-)-3-3-3-3-3-3-3-3-3-3-3-3-3-3-3-)

E--------------------------------)-------------------------------------)
B--------------------------------)-------------------------------------)
G--------------------------------)-------------------------------------)
D-7------------------------------)----------------------------8h11h12--)
A-7------------------------------)-------5h7h8-7h8h10-8h10h12----------)
E-5--5-5-5-5-5-5-5-5-5-5-5-5-5-5-)-5h6h9-------------------------------)


Verse: G5, D5, G5, F5, G5, D5, Fill 1 
       G5, D5, G5, F5, G5, D5, Fill 2  

Fill 1:
E-----------------------------------------------------------------)
B-----------------------------------------------------------------)
G-----------------------------------------------------------------)
D-----------------------------------------------------------------)
A-6--6-6-8--8-8-10--10-10-6--6-6-8--8-8-10--10-10-12---12-12-8----)
E-----------------------------------------------------------------)

Fill 2:
E---------------------------------------)
B---------------------------------------)
G-8---10---12---8---10---12---14--------)
D---------------------------------------)
A-6----8---10---6----8---10---12--------)
E---------------------------------------)


Ending of Chorus 2:
E---------------------------------)
B---------------------------------)
G---------------------------------)
D---------------------------------)
A---------7-7-7-7-5-5-5-5-4-4-4-4-)
E-5-5-5-5-------------------------)


Solo rhytm: Bb5, D5, C5, D5 (play like 2nd bar of Chorus)
            Bb5, D5, G5, A5
            Bb5, D5, C5, D5 (play like 2nd bar of Chorus)
            Bb5, D5, C5, G5, A5

Ending:
E-10h12h13-8h10h12-6h8h10-5h6h8----------------------------.--)
B-------------------------------8h10h11-6h8h10-5h6h8-3h5h6-3--)
G-------------------------------------------------------------)
D-------------------------------------------------------------)
A-------------------------------------------------------------)
E-------------------------------------------------------------)
Comments