Time-lapse Consortium - Grimace Chords & Tabs

 

Grimace Chords & Tabs

Time-lapse Consortium Chords & Tabs

Version: 1 Type: Tab 0 ratings
1 star 2 stars 3 stars 4 stars 5 stars
comments

Grimace Tab

GRIMACE - Time-Lapse Consortium
tabbed by Simon Campling.

i think its all right! some of the solo parts have extra string mutes in 
there, but that should come with strumming when u play it. Enjoy!

0.29-1.30 
e|----14--------------------------------------------------------------
B|----13--------------------------------------------------------------
G|----14--------------------------------------------------------------
D|--------------------------------------------------------------------
A|--------------------------------------------------------------------
E|--------------------------------------------------------------------

1.30-1.34
e|--------------------------------------------------------------------
B|--------------------------------------------------------------------
G|-------------------7~~----------------------------------------------
D|--------------457---------------------------------------------------
A|---7777---5457------------------------------------------------------
E|-----------------77-------------------------------------------------

1.35-2.05         (with variations)
e|-----------------7x7x7-77------------------------------------------- 
B|-----------------7x7x7-77-------------------------------------------
G|----77-6677-6677----------------------------------------------------
D|----xx-xxxx-xxxx----------------------------------------------------
A|----55-4455-4455----------------------------------------------------
E|-------------------------------------------------------------------- x8

2.06-2.11
e|--------------------------------------------------------------------
B|--------------------------------------------------------------------
G|--------------------------------------------------------------------
D|--------------45754--754-54--4---------------7/9--------------------
A|---7777---5457-----7-------7--75-754-5------------------------------
E|--------------------------------------5--7777-----------------------

2.13-2.20
e|-10~--10-9-7-99-7-9-9/10--------------------------------------------------
B|------------------------xx8-8/10-10-10/8-8-8/7-7-8/7----------------------
G|----------------------------------------------9-----7-11-11-9-xx7-7h9xx9--
D|--------------------------------------------------------------------------
A|--------------------------------------------------------------------------
E|--------------------------------------------------------------------------

2.21-2.24
e|----------------------------------5h7p5-----------10----------------
B|------------------------------5-7-------7-9-5-7---------------------
G|--------------------------6-7-----------------------7--xxx----------
D|--------------------6-7-9-------------------------------------------
A|----------2-4-5-7-9-------------------------------------------------
E|--0-2-4-5-----------------------------------------------------------

2.25-2.29
e|--------------------------------------------------------------------
B|--10~xx-9-7-x7-9-7-9-7-9/10--7--------------------------------------
G|-------------------------------9-7-9--7-9-7-9~-79-9~----------------
D|--------------------------------------------------------------------
A|--------------------------------------------------------------------
E|--------------------------------------------------------------------

2.29-2.36
e|--10-10-----x10--10-----------------------------
B|------------------------7h10-10-10-11-11-12-12~-
G|--------7-7----7---77---------------------------
D|------------------------------------------------
A|------------------------------------------------
E|------------------------------------------------

e|-12-12-12-10-10p9-7h9-7-------------------------
B|------------------------9-10-12-9-10-7-9-79-9~--
G|------------------------------------------------
D|------------------------------------------------
A|------------------------------------------------
E|------------------------------------------------
[ Tab from: http://www.guitartabs.cc/tabs/t/time_lapse_consortium/grimace_tab.html ]
2.36-2.40
e|--------7-9-10-9-7----7-7-------------------------------------------
B|-7-9-10------------10-----10-9-10-10-9-7-9-9-7---7-7----------------
G|-----------------------------------------------9-----9-7--6-7-9-7---
D|--------------------------------------------------------------------
A|--------------------------------------------------------------------
E|--------------------------------------------------------------------

2.41-2.44
e|-----------10-------------------------------------------------------
B|------------------9b10b9--------------------------------------------
G|----7-7h9-----7-7--------7/9-9-9~-----------------------------------
D|-7h9----------------------------------------------------------------
A|--------------------------------------------------------------------
E|--------------------------------------------------------------------

drum "solo"

2.48-2.26
e|--------------------------------------------------------------------
B|--------------------------------------------------------------------
G|---------------3----------------------------------------------------
D|-7-7-5-5-----6-x----------------------------------------------------
A|-5-4-7-7-2-5-4-4----------------------------------------------------
E|-------7-0-3--------------------------------------------------------

2.59-3.06
e|--14------------14----14--------------------------------------------
B|--13------------13----13--------------------------------------------
G|--14------------14----14--------------------------------------------
D|--------------------------------------------------------------------
A|--------------------------------------------------------------------
E|--------------------------------------------------------------------

3.07-3.10            |3.15-3.20
e|-------------------|-------------------------------------------------
B|-------------------|-------------------------------------------------
G|---7------11-------|-10-6-9------//14--------------------------------
D|-----11------------|-----------9-------------------------------------
A|-7------9----------|--------10---------------------------------------
E|-------------------|-------------------------------------------------

3.22-3.30            |3.30-3.35
e|-----------------14|-------------------------------------------------
B|-----------------13|-------------------------------------------------
G|---7------11-----11|-10-6-9------//14--------------------------------
D|-----11----------11|-----------9-------------------------------------
A|-7------9--------12|--------10---------------------------------------
E|-------------------|-------------------------------------------------

3.39-3.46            |3.46- 3.55        |-tremelo pickin-|
e|-----------------14|-------------------------------------------------
B|-----------------13|-------------------------------------------------
G|---7------11-----11|-10-6-9------//14-1414141414141414---------------
D|-----11----------11|-----------9-------------------------------------
A|-7------9--------12|--------10---------------------------------------
E|-------------------|-------------------------------------------------

3.56-4.27                 (with variations)
e|-----------------7x7x7-77------------------------------------------- 
B|-----------------7x7x7-77-------------------------------------------
G|----77-6677-6677----------------------------------------------------
D|----xx-xxxx-xxxx----------------------------------------------------
A|----55-4455-4455----------------------------------------------------
E|--------------------------------------------------------------------

4.27-4.33
e|--------------------------------------------------------------------
B|--------------------------------------------------------------------
G|--------------------------------------------------------------------
D|--------------45754--754-54--4---------------7/9--------------------
A|---7777---5457-----7-------7--75-754-5------------------------------
E|--------------------------------------5--7777----------------------- x8


e|--------------------------------------------------------------------
B|------------12121212------------------------------------------------
G|------------x-x-x-x-------------------------------------------------
D|--9999-9999-9-9-9-9-------------------------------------------------
A|--xxxx-xxxx-x-x-x-x-------------------------------------------------
E|--7777-7777-7-7-7-7-------------------------------------------------
Comments