Time - Jungle Love Chords & Tabs

 

Jungle Love Chords & Tabs

Time Chords & Tabs

Version: 1 Type: Tab 0 ratings
1 star 2 stars 3 stars 4 stars 5 stars
comments

Jungle Love Tab

-------------------------------------------------------------------------------
			     Jungle Love - Morris Day and the Time
-------------------------------------------------------------------------------
Tabbed by: Jared Peterman
E-mail: Ninja216@comcast.net

Tuning: Normal - EADGBe
     x3
e|-------------------|
B|-------------------|
G|-------------------|
D|-----------5-------|
A|----5---7-----7----|
E|-------------------|

e|---------------------|
B|---------------------|
G|---------------------|
D|----------7--5-------|
A|----5-5-5-------7----|
E|---------------------|

through whole song...

very end play this:

e|---------------|
B|---------------|
G|---------------|
D|---------------|
A|----5--5--6----|
E|---------------|

Lyrics:

I, I've been watching you 
Girl I wanna know ya (Know ya) 
I, I am a little dangerous 
Girl I'd love to show ya (Show ya) 

My jungle love (oh we oh we oh) 
I think I wanna know ya (Know ya) 
Jungle love (oh we oh we oh) 
Girl I need to show ya (Show ya) 
[ Tab from: http://www.guitartabs.cc/tabs/t/time/jungle_love_tab.html ]
You, you've got a pretty car 
I think I wanna drive it (Drive it) 
(I aint kiddin') said I, Drive a little dangerous 
Take you to my crib and rip you off 
Huh! (Jungle love) 

Oh! (oh we oh we oh) 
I think I wanna know ya (Know ya) 
Jungle love, Yeah! (oh we oh we oh) 
Girl I'd love to show ya (Show ya) 

(Come on baby  Where's your guts 
You wanna make love or what?)

(Oh we oh we oh) 

I, Wanna take you to my cage, Lock you up and hide the key (Oh we oh we oh) 
You, Are only getting part of the pig 
Cause if you're hungry, Take a bite of me (Oh we oh we oh) 

oh! My jungle love, Yes! (oh we oh we oh) 
I think I wanna know ya (Know ya) 
Hey! Jungle love  (oh we oh we oh) 
Girl I'd love to show ya (Show ya) 

Jungle love (oh we oh we oh) 
I think I wanna know ya (Know ya) 
Jungle love (oh we oh we oh) 
Girl I, I think I wanna (Show ya) think I wanna show ya

Hey Jesse, Now Jerome, yes, check it out

CHORUS (a couple of times)



-Entire songs played with an effect.
-If you have any corrections or comments, e-mail me.
Comments