Timbuktu - The Botten Is Ndd Chords & Tabs

 

The Botten Is Ndd Chords & Tabs

Timbuktu Chords & Tabs

Version: 1 Type: Tab 0 ratings
1 star 2 stars 3 stars 4 stars 5 stars
comments

The Botten Is Ndd Tab

 Genom hela låten:

E|---0-------0-------0-----------0--------0--------0--------0--------0-||
B|---1-------1-------1-----------1--------1--------1--------1--------1-||
G|---------------------------------------------------------------------||
D|-----0h2-3----3-0h2-----0h2----------------0h2-3----3-0h2----0h2-----||
A|-3---------------------------3-----0--3--------------------------3---||
E|---------------------------------------------------------------------||

[ Tab from: http://www.guitartabs.cc/tabs/t/timbuktu/the_botten_is_ndd_tab.html ]
  
E|------0---------3----------1----1------0-------3--------1---1---||
B|------1---------0----------1----1------1-------0--------1---1---||
G|----------------------------------------------------------------||
D|----------------------------------------------------------------||
A|-3--0-----0--------------------------0----0---------------------||
E|------------3-------3--1-----1---------------3-----3--1---1-----||

Ha det bra allesammans!!
H/ ssk_lik_7@hotmail.com
Comments