Timbuk 3 - Futures So Bright Chords & Tabs

 

Futures So Bright Chords & Tabs

Timbuk 3 Chords & Tabs

Version: 1 Type: Tab 1 rating
1 star 2 stars 3 stars 4 stars 5 stars
comments

Futures So Bright Tab

   
#----------------------------------PLEASE NOTE---------------------------------#
#This file is the author's own work and represents their interpretation of the #
#song. You may only use this file for private study, scholarship, or research. #
#------------------------------------------------------------------------------##
From: markr@phineas.ent-img.com (Mark R. Rubin)
Subject: Re: REQ: The Future's so bright.. (Not in Archive)

o Simple song; it's all in the feel.  The part marked "intro" is
  really a lick that can (should) be thrown in (with variations)
  wherever the song has an "A" chord.  Partial palm muting helps.

o Besides, this is the first solo I ever figured out from a record.
  Look at it and you'll see why.  :-)



artist:	Timbuk 3
song:	The Future's So Bright I Gotta Wear Shades
album:	Greetings From Timbuk 3

[ Tab from: http://www.guitartabs.cc/tabs/t/timbuk_3/futures_so_bright_tab.html ]
intro:                                    
e-|--------------------------------------------------------------------------|
B-|--------------------------------------------------------------------------|
G-|-----------------------0-----0--------------------------------------------|
D-|--2--4--5--4--2--2-h4-----5-----4--0-----2--0--4--0--5--0--4--0--2--------|
A-|--0--0--0--0--0--------------------------0--0--0--0--0--0--0--0--0--3--4--|
E-|--------------------------------------------------------------------------|

solo:                                                                etc.
e-|--8--8--8--8--7--5-----8--7--5--|-10-10-10-10--8--7----10--8--7--|---------
B-|--8--8--8--8--7--5-----8--7--5--|-10-10-10-10--8--7----10--8--7--|---------
G-|--------------------------------|--------------------------------|---------
D-|--------------------------------|--------------------------------|---------
A-|--------------------------------|--------------------------------|---------
E-|--------------------------------|--------------------------------|---------

verse:
     A
1a)  I study nuclear science.  I love my classes.
3a)  I got a job waiting for my graduation.
5a)  I'm heavenly blessed, and worldly wise.


1b)  I got a crazy teacher he wears dark glasses.
3b)  Fifty thou' a year will buy a lot of beer.
5b)  I'm a peeping-tom techie with x-ray eyes.


chorus:
         D                                                A
2,4,6a)  Things are going great, and they're only getting better.

             D              A
2,4,6b)  I'm doing alright, getting good grades.

             G                               A
2,4,6c)  The future's so bright, I gotta wear shades.

Comments