Timberlake Justin - Like I Love U Chords & Tabs

 

Like I Love U Chords & Tabs

Timberlake Justin Chords & Tabs

Version: 1 Type: Tab 0 ratings
1 star 2 stars 3 stars 4 stars 5 stars
comments

Like I Love U Tab

Timberlake, Justin - Like i love u
submitted by: christine geronimo


Listen for pattern off the recording

intro/verses:
[ Tab from: http://www.guitartabs.cc/tabs/t/timberlake_justin/like_i_love_u_tab.html ]
e----------------------------------------------------
B----------------------------------------------------
G--5---5-5-5------5---5-5-5------5---5-5-5-----------
D--5---5-5-5------5---5-5-5------5---5-5-5-----------
A--3---3-3-3------3---3-3-3------3---3-3-3-----------
E----------------------------------------------------



e----------------------------------------------------
B----------------------------------------------------
G--5-5-5-6-6-6-3-------------------------------------
D--5-5-5-6-6-6-3-------------------------------------
A--3-3-3-4-4-4-1-------------------------------------
E----------------------------------------------------

repeat through the whole song


enjoy
Comments