Timber Timbre - No Bold Villain Chords & Tabs

 

No Bold Villain Chords & Tabs

Timber Timbre Chords & Tabs

Version: 1 Type: Tab 0 ratings
1 star 2 stars 3 stars 4 stars 5 stars
comments

No Bold Villain Tab

   
-------------------------------------------------------------------------------
	                        No Bold Villain by Timber Timbre
-------------------------------------------------------------------------------

Email: ryjbiss@yahoo.com

Tuning: Standard

Riff 1:
e|----------------------------------|
B|----------------------------------|
G|----------------------------------|
D|-----------2--2-----------2--2----|
A|---2-2--4--2--2----2-2-4--2--2----|
E|---0-0--0----------0-0-0----------|

Riff 2:
e|--------------------------------|
B|--------------------------------|
G|---1-1------------1---1---------|
D|---2-2--2-4--4----2-2-2--4-4----|
A|--------2-2--2------2----2-2----|
E|--------------------------------|

Intro: Riff 1 x2
       Riff 2
       Riff 1
[ Tab from: http://www.guitartabs.cc/tabs/t/timber_timbre/no_bold_villain_tab.html ]
E
Your no bold villain.
Your bought and sold.
          F#m
To have a soulmate,
you need a soul.
            A
Not born of man,
but some form of the moon.
                 B
One of us is not known,
                    A
and it might not be you.
        E
I was a spook for you,
another ghost.
        F#m
I was a fool for you,
another stool pigeon.
          A
I was the kid,
see she was the clown.
             B
And you took north,
                 A
when things went south.
                 E
But your no bold villain.
Your bought and sold.
          F#m
To have a soulmate,
You need a soul.
            A
Not born of man,
But some form of the moon.
                 B
One of us is not known,
                    A
And it might not be you.

Outro: Repeat intro twice.

I'm not sure if the chord after B is A or F#m. Comment on what you think fits best.
Comments