Timber Timbre - Black Water Chords & Tabs

 

Black Water Chords & Tabs

Timber Timbre Chords & Tabs

Version: 1 Type: Bass Tab 0 ratings
1 star 2 stars 3 stars 4 stars 5 stars
comments

Black Water Bass Tab

Title: Black Water
Artist: Timber Timbre
Tabber: gwendal.mollo@orange.fr
Tempo = 78
Bass



Chorus :
G |----------------------------|----------------------------|
D |----------------------------|----------------------------|
A |----------------------------|--5--------5--3-----3-------|
E |--1--------1--5--------5----|----------------------------|   x4


Verse :
----------------------------|----------------------------|
----------------------------|--5--3----------------------|
--5-----5--3----------------|--------5--3--5--------3----|
--------------5-----5-------|----------------------------|

[ Tab from: http://www.guitartabs.cc/tabs/t/timber_timbre/black_water_btab.html ]
----------------------------|----------------------------|
----------------------------|--5--3----------------------|
--5-----5--3----------------|--------5--3--5-----5-------|
--------------5-----5-------|----------------------------|


----------------------------|
----------------------------|
--8--------8----------------|
--------------5-----5-------|


-----------------------------------------------------------------------------|
--3--5-----------3-----------------------------------------------------------|
-----------------------------5-----------3-----------5-----------------------|
-----------------------------------------------------------------------------|


-----------------------|----------------------------|
-----------------------|----------------------------|
---------3-------------|--5-----5--3----------------|
-----------------------|--------------5-----5-------|


----------------------------||
--5--3----------------------||
--------5--3--5--------3----||
----------------------------||
Comments