Tim Skold - Burn Chords & Tabs

 

Burn Chords & Tabs

Tim Skold Chords & Tabs

Version: 1 Type: Tab 0 ratings
1 star 2 stars 3 stars 4 stars 5 stars
comments

Burn Tab

Tuned down 1/2 step

Riff (Synthasizer arranged for guitar)
eb--11--11-11------13--13-13-------------------------------|
Bb---------------------------------------------------------|
Gb------------9--------------11----------------------------|
Db---------------------------------------------------------|
Ab---------------------------------------------------------|
Eb---------------------------------------------------------|

Chorus
eb---------------------------------------------------------|
Bb---------------------------------------------------------|
Gb--7/9---------------------12--12-12-9--------------------|
Db--7/9---------------------12--12-12-9--(all x 3 then:)---|
Ab--5/7--7m-7m-7m-7m-7m-7m--10--10-10-7--------------------|
Eb-------0m-0m-0m-0m-0m-0m---------------------------------|

(continued)
eb---------------------------------------------------------|
Bb---------------------------------------------------------|
Gb--12--12-12-9---12-12--14--------------------------------|
Db--12--12-12-9---12-12--14--------------------------------|
Ab--10--10-10-7---10-10--12--------------------------------|
Eb---------------------------------------------------------|

Verse 1
eb---------------------------------------------------------|
Bb---------------------------------------------------------|
Gb--7/9----------------------------------------------------|
Db--7/9----------------------------------------------------|
Ab--5/7--7m-7m-7m-7m-7m-7m 7m-7m-7m-7m-7m-7m-7m-7m-7m-7m---|
Eb-------0m-0m-0m-0m-0m-0m-0m-0m-0m-0m-0m-0m-0m-0m-0m-0m---|
("From dust to blood...")

(continued)
eb---------------------------------------------------------|
Bb---------------------------------------------------------|
Gb--12--12--12--12--12--12--12-----------------------------|
Db--12--12--12--12--12--12--12-----------------------------|
Ab--10--10--10--10--10--10--10-----------------------------|
Eb---------------------------------------------------------|

Pre-Chorus (each hit 2 times)
eb---------------------------------------------------------|
Bb---------------------------------------------------------|
Gb---------------------------------------------------------|
Db--10-10-10-10--9-9-9-9--7-7-7-7--5-5--7--9--10-10-10-10--|
Ab---x--x--x--x--x-x-x-x--x-x-x-x--x-x--x--x---x--x--x--x--|
Eb---8--8--8--8--7-7-7-7--5-5-5-5--3-3--5--7---8--8--8--8--|
("I've been waiting for a long time baby...")
[ Tab from: http://www.guitartabs.cc/tabs/t/tim_skold/burn_tab.html ]
(continued)
eb---------------------------------------------------------|
Bb---------------------------------------------------------|
Gb-----------7-7-7-7--8-8-8-8------------------------------|
Db--9-9-9-9--x-x-x-x--x-x-x-x------------------------------|
Ab--x-x-x-x--5-5-5-5--6-6-6-6------------------------------|
Eb--7-7-7-7------------------------------------------------|

Verse 2
eb---------------------------------------------------------|
Bb---------------------------------------------------------|
Gb--7/9----------------------------------------------------|
Db--7/9----------------------------------------------------|
Ab--5/7--7m-7m-7m-7m-7m-7m-7m-7m-7m-7m-7m-7m-7m-7m-7m-7m---|
Eb-------0m-0m-0m-0m-0m-0m-0m-0m-0m-0m-0m-0m-0m-0m-0m-0m---|

(continued)
eb---------------------------------------------------------|
Bb---------------------------------------------------------|
Gb--12--12--12--12--12--12--12--7/9------------------------|
Db--12--12--12--12--12--12--12--7/9------------------------|
Ab--10--10--10--10--10--10--10--5/7--7m-7m-7m-7m-7m-7m-7m--|
Eb-----------------------------------0m-0m-0m-0m-0m-0m-0m--|

(continued)
eb---------------------------------------------------------|
Bb---------------------------------------------------------|
Gb---------------------------------------------------------|
Db------------------------------5--5--5--5--5--5--5--------|
Ab--7m-7m-7m-7m-7m-7m-7m-7m-7m--x--x--x--x--x--x--x--------|
Eb--0m-0m-0m-0m-0m-0m-0m-0m-0m--3--3--3--3--3--3--3--------|

Bridge 1
eb-----|---------------------------------------------------|
Bb-----|---------------------------------------------------|
Gb--9~-|--9---8---10------------7---9---8---10-------------|
Db--9~-|--9---8---10---10---9---7---9---8---10---10---9----|
Ab--7~-|--7---6----8---10---9---5---7---6----8---10---9----|
Eb-----|----------------8---7---------------------8---7----|

Bridge 2
eb--------------------6----------------6-------------------|
Bb---------------------------------------------------------|
Gb---------------------------------------------------------|
Db--2m--2m-2m--2m-2m-----2m-2m--2m-2m-----2m-2m--2m-2m-----|
Ab--2m--2m-2m--2m-2m-----2m-2m--2m-2m-----2m-2m--2m-2m-----|
Eb--0m--0m-0m--0m-0m-----0m-0m--0m-0m-----0m-0m--0m-0m-----|

(continued)
eb---------------------------------------------------------|
Bb---------------------------------------------------------|
Gb--9-9-9-9-9-9-9-9----------------------------------------|
Db--x-x-x-x-x-x-x-x----------------------------------------|
Ab--7-7-7-7-7-7-7-7----------------------------------------|
Eb--0-0-0-0-0-0-0-0----------------------------------------|


Riff
Chorus
Verse 1
Pre-Chorus
Chorus
Verse 2
Pre-Chorus
Chorus
Bridge 1
Bridge 2
Chorus
Riff
Comments