Tim Reynolds - Loose Interpretations Chords & Tabs

 

Loose Interpretations Chords & Tabs

Tim Reynolds Chords & Tabs

Version: 1 Type: Tab 0 ratings
1 star 2 stars 3 stars 4 stars 5 stars
comments

Loose Interpretations Tab

low E tuned down to a c
the numbers with asterisks denote a slapped note.


-----------------------------------------------------------------------------------|
-4----4---------------4---4--------------------------------------------------------|
-3----3---------------3---3---------------------3h5p3----------/5------------------|
------------------------------------------------------5-3h5p3\---------------------|
-----------------3*----------------------3*----------------------------------------|
-0---0---3*--5*-------0---0----3*---5*-------0------------------0------------------|
[ Tab from: http://www.guitartabs.cc/tabs/t/tim_reynolds/loose_interpretations_tab.html ]
main riff
-------------3-------------3---3-----------------3---------------------------------|
-------------4-------------4---4---------6-4-\---4------------4--4-----------------|
-------5-3---3-------------3---3---3-5-----------3------------3--3-----------------|
-3-5-------------------------------------------------------------------------------|
-----------------------3*---------------------------------3*-----------------------|
---------0---0--3*-5*------0---0-----------0-----0-3*-5*------0--0-----------------|

fill 1
-6--8--11--------------------8-6-------------------8-8/-----------8-6-------------|
-6--8--11--------------------8-6-------------------8-8/-----------8-6-------------|
----------------------------------------------------------------------------------|
----------------------------------------------------------------------------------|
----------------------3*-1*-----------------3*------------------------------------|
-0--0-------0*-0*h3h5-------------0*-0*h3h5----0*-------9*h10p9-7*-0-0------------|

---------------------------------------------------------------------------------|
---------------------------------------------------------------------------------|
---------------------------------------------------------------------------------|
---------------------------------------------------------------------------------|
------------3*-------------------------------------------------------------------|
-0*--0*h3h5-----0*---------------------------------------------------------------|
Comments