Tim Mcgraw - I Like It I Love It Chords & Tabs

 

I Like It I Love It Chords & Tabs

Tim Mcgraw Chords & Tabs

Version: 1 Type: Tab

I Like It I Love It Tab

   
Tim Mcgraw - I Like It, I Love It (intro)

***********************************************************************

b   =   bend           h   =  hammer-on        \   =   slide down

/   =   slide up       b*  =  pick halfway through bend

***********************************************************************

                                C
[ Tab from: http://www.guitartabs.cc/tabs/t/tim_mcgraw/i_like_it_i_love_it_tab.html ]
E--11----8----6-----------------8-8--------8-----8-------------|
B----10b-8----------------------8-8-10-8---8--8--8-10-8--------|
G---------10b--8-8-5---8-5-5-5------10-8h9---10b---10-8h9------|
D-------------------8-5---8-------------------------------10\--|
A--------------------------------------------------------------|
E--------------------------------------------------------------|

   F                         G

E--1-------1-----------------3----------------3-----------|
B--1-3-1---1--2/4-4-3-1------3-5-3---3-3---3--3-5-3-------|
G----3-1h2----3/5-5-3-1h2------5-3h4-5-5b*-5b---5-3h4-----|
D-------------------------3---------------------------5\--|
A---------------------------------------------------------|
E---------------------------------------------------------|

   C          G

E--8--------8-10--10---7---------------|
B--8-10-8---8-10b-10br-8--8---8--------|
G----10-8h9--------------10br-8b-------|
D--------------------------------10\---|
A--------------------------------------|
E--------------------------------------|