Tim Christensen - Prime Time Chords & Tabs

 

Prime Time Chords & Tabs

Tim Christensen Chords & Tabs

Version: 1 Type: Tab 0 ratings
1 star 2 stars 3 stars 4 stars 5 stars
comments

Prime Time Tab

   
Artist/composer: Tim Christensen.
Album: ?
Tittle: Prime Time.

Intro and verse:

e---------------------------|
b---------------------------|
g--4---4---4---5---5---5----|
d--7---7---7---7---7---7----|  2+4 times
a----0---0---0---0---0---0--|
e---------------------------|

Rise and shine - You lazy diamond
Now's the time - The time to move on

e---------------------------|
b---------------------------|
g--5---5---5---4---4---4----|
d--3---3---3---3---3---3----|
a--5-5---5---5---5---5---5--|
e---------------------------|

And re-define 2 times

e---------------------------|
b---------------------------|
g--4---4---4---5---5---5----|
d--6---6---6---6---6---6----|
a--7-7---7---7---7---7------|
e---------------------------|
[ Tab from: http://www.guitartabs.cc/tabs/t/tim_christensen/prime_time_tab.html ]
The sound from the silence
I'll shine the light alone

2. verse:
Here I am
Out of the filter
Time to stand
With nobodies shelter
Yeah I will fine
The sound in the silence
I'll shine a light alone

Chorus:
               A      /c    Dadd9
Blame it on my prime time
E F     D/f# Gsus  G
Blame it on the star shining on me
E       F
But I hope you will believe me
     Fmaj
When I say
     Dm         E
That I am on my way (repeat)

3. verse:
I can't tell
Where this one is leading
But all is well
If I keep believing
When faces smile
Then I'm on the safe side
I'll shine the light alone

Chorus 2 times (with solo)
Comments