Tim Christensen - Kings Garden Chords & Tabs

 

Kings Garden Chords & Tabs

Tim Christensen Chords & Tabs

Version: 2 Type: Tab 0 ratings
1 star 2 stars 3 stars 4 stars 5 stars
comments

Kings Garden Tab

   
I've read a lot tabs of this song, but they were all wrong. Here is the correct way of 
it:

You have to tune your guitar like this:
D A D G H e

intro:

e-------------------------------------------------------5------5------5-4-|
H-------2---------0--------2------------------------1-3----1-3----1-3-----|
G----------------------------4-2----4-1---2-2h4p2-------------------------|
D---2-4-------2-4-----2-4-------------------------------------------------|
A-0-----------------0------------(0)--------------------------------------|
D----------0--------------------------------------------------------------|


A=x02220
Dmaj7=xx0222
e=222100
Fdim=xx0101
F#m=x44222
Hm=x24432
D=000xxx
Asus4=x02230

verse:

      A             Dmaj7                   e
Is it true that the pain inside me could be you
       Fdim                         F#m
What I thought was all gone lingers on
       Hm              D           e
always slightly out of reach

        A        Dmaj7                        e
Picture this suddenly you don't know what you miss
    Fdim                   F#m
but whatever it is, it's a word
       Hm            D          e
always slightly overheard these days

chorus:
[ Tab from: http://www.guitartabs.cc/tabs/t/tim_christensen/kings_garden_tab_ver_2.html ]
       Asus4  A          Asus4   A
But in Kings Garden I'll find my way
     Hm                D         e
From Kings garden to a brave new day
   Asus4 A
In Kings Garden
    Hm                     D       e
The King's gotten over the dream

e-----5------5------5-4--|
H-1-3----1-3----1-3------|
G------------------------|
D------------------------|
A------------------------|
D------------------------|

(played as verse one)
I believe between tou and the moon I can see
How I thought it would be but a cloud's
always slightly in the way

Are you sad now our future belongs to the past
Like an old photograph still remains
always slightly out of focus now

(chorus)


Solo:
I'm not quiet sure, but this is almost correct
e-------------------------------------------------------|
G-------------------------------------------------------|
H-------------------------------------------------------|
D--------------------------------------9--7-----7---7-9-|
A---4-5-7--4-5-7--9--2-------5-4-5-7-4------9-----9-----|
D------------------------0-4----------------------------|


Here comes the final chorus

       Asus4  A          Asus4   A
But in Kings Garden I'll find my way
     Hm                D         e
From Kings garden to a brave new day
   Asus4 A
In Kings Garden
    Hm                     D       e
The King's gotten over the dream
   Asus4 A
In Kings Garden
    Hm                     D       e
The King's gotten over his queen


Outro:

e-----5------5------5-4------4--0--|
H-1-3----1-3----1-3------0-2----2--|
G-------------------------------2--|
D-------------------------------2--|
A-------------------------------0--|
D----------------------------------|
Comments