Tim Christensen - Jump The Gun Chords & Tabs

 

Jump The Gun Chords & Tabs

Tim Christensen Chords & Tabs

Version: 1 Type: Tab 0 ratings
1 star 2 stars 3 stars 4 stars 5 stars
comments

Jump The Gun Tab

Artist	 : Tim Christensen
Song	 : Jump The Gun
Album	 : Honeyburst (2003)
Tabbed By: Jonas Jens Brogaard

Intro:

6|------------------------------------|R|
5|------------------------------------|E|
4|------------------------------------|P|
3|--9-9-9--9-9-9-7-7-7--7-9-9-9-7-7-7-|E|
2|--7-7-7--9-9-9-9-9-9--9-9-9-9-9-9-9-|A|
1|--0-0-0--7-7-7-7-7-7--7-7-7-7-7-7-7-|T|

Vers:

6|-------------------------------------------------------------------------------------|R|
5|------------------------6-6-----6-6--------------------------------11-11-------11-11-|E|
4|--8-8-8-8--6-6-6-6--4-4-4-4-4-4-4-4----8-8-8-8--11-11-11-11--9--9--9--9--9--9--9--9--|P|
3|--9-9-9-9--7-7-7-7--5-5-5-5-5-5-5-5----9-9-9-9--12-12-12-12--10-10-10-10-10-10-10-10-|E|
2|--9-9-9-9--7-7-7-7--5-5-5-5-5-5-5-5----9-9-9-9--12-12-12-12--10-10-10-10-10-10-10-10-|A|
1|--7-7-7-7--5-5-5-5--3-3-3-3-3-3-3-3----7-7-7-7--10-10-10-10--8--8--8--8--8--8--8--8--|T|

Chorus:
[ Tab from: http://www.guitartabs.cc/tabs/t/tim_christensen/jump_the_gun_tab.html ]
6|------------------------------------------------5-5--5-5-5-5--5-5-5-4-3-2---5-5--5-5-5-5-----2-2-2-2-2-2-|
5|------------------------------------------------7-7--7-7-7-7--7-7-7-6-5-3---7-7--7-7-7-7-----3-3-3-3-3-3-|
4|--8-8-8-8--7-7-7-7--8-8-8-8--7-7-7-7--8-8-8-8------------------------------------------------------------|
3|--9-9-9-9--8-8-8-8--9-9-9-9--8-8-8-8--9-9-9-9------------------------------------------------------------|
2|--9-9-9-9--8-8-8-8--9-9-9-9--8-8-8-8--9-9-9-9------------------------------------------------------------|
1|--7-7-7-7--6-6-6-6--7-7-7-7--6-6-6-6--7-7-7-7------------------------------------------------------------|

Solo:

Sorry! Haven't figured that out!!   				 ....Yet..

It could be a good idea to listen to the rytme and all those kind of things, 
you play this tab.
It's not exactly the one that Tim is playing, but close enough I think.. For now.. I'm 
working on it, to
make it more like the way Tim is playing it..

Having any comments?!? PLEASE! Mail me at: jonas_brogaard2@hotmail.com

(V.U.S. 02/03)
Comments