Tilt - Libel Chords & Tabs

 

Libel Chords & Tabs

Tilt Chords & Tabs

Version: 1 Type: Bass Tab 0 ratings
1 star 2 stars 3 stars 4 stars 5 stars
comments

Libel Bass Tab

-----------------------------------------------------------------------
                     LIBEL      TILT
-----------------------------------------------------------------------

>Means Strum

INTRO
G]-----------------------------------------------------------------------
D]-----------------------------------------------------------------------
A]-7>-6-7-6>-7-6----0-2-4-7>-6-7-6>-7-6----0-2-4-7>-6-7-6>-7-6-9>-11-9-8-
E]---------------2>---------------------2>-------------------------------
[ Tab from: http://www.guitartabs.cc/tabs/t/tilt/libel_btab.html ]
G]-----------------------------------------------]
D]-----------------------------------------------]
A]---------7>-6-7-6>----7>-6-7-6>-7-6--2-2-0-----]
E]-11-9-11-----------2>----------------------4-2-]

CHORUS                            to get back into verse
G]----------------------]         [-----------------]
D]----------------------]         [-----------------]
A]-------2>----------2>-]         [-----0-0-2-2-4-4-]
E]-0>-2>----4>-0>-2>----]         [-4-4-------------]

VERSE
CHORUS

BRIDGE
G]-------------------------------------------]
D]-------------------------------------------]
A]-9-9-9-7-9-9-9-9-7-9----6-7----0-0-2-2-4-4-]
E]---------------------7>-----2>-------------]

CHORUS
BRIDGE
CHORUS




Comments