Tigers Jaw - Static Chords & Tabs

 

Static Chords & Tabs

Tigers Jaw Chords & Tabs

Version: 1 Type: Chords 0 ratings
1 star 2 stars 3 stars 4 stars 5 stars
comments

Static Chords

   
-----------------------------------------------------------------------------
			     STATIC - Tigers Jaw
-----------------------------------------------------------------------------
Tabbed by: Mean Mr Mustard
Email: Gotchristo@comcast.net

Tuning: Standard

Im a little iffy still about the interlude part, but Ive been trying to figure it out 
for a while now with no hope and Ive had everything else done, so here it is.


CHORDS:
Am   -  x-0-2-2-1-0  (in the chorus its x-0-2-2-1-3)-|
C    -  x-3-2-0-1-0----------------------------------|
G    -  3-2-0-0-0-3----------------------------------|
Em   -  0-2-2-0-0-0----------------------------------|
F    -  1-3-3-2-1-1----------------------------------|


INTRO: (see intro lead)
Am   C   G   Em    x4


VERSE:
Hello old friend,
Am    C    G           Em
             You are a vanishing act.
Am    C    G       Em
             Youre sending signals,
Am    C    G    Em
             Im receiving static.
Am    C    G     Em


CHORUS: (arpeggiate chords)
Am                            F
Maybe if he was more like his brother, hed have it together.
Am                                  F
And I cant take the helplessness of being so far away.
Am                F
Maybe I drive too fast when Im alone,
Am            F
But who would know?

[ Tab from: http://www.guitartabs.cc/tabs/t/tigers_jaw/static_crd.html ]
INTERLUDE: (meh, really hard to make out, but this is what I play, any corrections to 
this part are welcome.)

Am   G    G     Em
Am   G    Em     C

F                          Am    G    C      Am
I can take whats left of this            and reconstruct.
F                             Am    G    C     Am
It makes sense in the past tense,
F                         Am    G    C     Am
Cant hold its weight today.
F                          (drum fill)
Where is our solid ground?


OUTRO:
Am         G           F
My head it lies at the confluence
     Am     G        F
Of insanity here in my room
       Am         G   F
And of catastrophe in letters,
Am       G         F
I cannot see my own hands.


OUTRO LEAD:
Am   G   F   -     x4



INTRO LEAD:
e|-------------------------|
B|-------------------------|
G|-------------------------|
D|-/7--5-5--5-5--5----5----|
A|-----------------/7---7--|
E|-------------------------|


OUTRO LEAD:
  Am       G       F          Am       G       F
e|---------------------------|----------------------------|
B|---------------------------|----------------------------|
G|----9-------9------9---9^--|----9-------9------9---9^^--|
D|---------------------------|----------------------------|
A|-12---12-10---10-8---8---8-|-12---12-10---10-8---8------|
E|---------------------------|----------------------------|
Comments