Tigers Jaw - Spirit Desire Acoustic Chords & Tabs

 

Spirit Desire Acoustic Chords & Tabs

Tigers Jaw Chords & Tabs

Version: 1 Type: Chords 0 ratings
1 star 2 stars 3 stars 4 stars 5 stars
comments

Spirit Desire Acoustic Chords

I couldn't find these chords anywhere, so I decided to post them for everyone else.  Enjoy
-Ryan Emmert


So basically it is two variations of an open F chord which are...
      
      RHYTHM(listen to the song to be more accurate)

      x  x x x  x  x x x x      x  x x x  x  x x x 

e|--------------------------------------------------|
B|----2-----------------------0---------------------|
G|----2-----------------------2---------------------|
D|----0-----------------------0---------------------|
A|----0-----------------------0---------------------|
E|----2-----------------------2---------------------|


...followed by an A & A5 chord which are

      x  x x x  x  x x x      x  x x x  x  x x x 

e|--------------------------------------------------|
B|----2-----------------------0---------------------|
G|----2-----------------------2---------------------|
D|----2-----------------------2---------------------|
A|----0-----------------------0---------------------|
E|--------------------------------------------------|


Lyrics


Waiting for the sun, but I know that it'll come.
[ Tab from: http://www.guitartabs.cc/tabs/t/tigers_jaw/spirit_desire_acoustic_crd.html ]
I feel reborn when you touch my arm.

Whole new view, feel better when I talk to you. 

I get scared with what I wear.

Even when you yell, I still love your belly,

It's true, it's true. 

Riding it through the night, straight through.


It still feels new when I talk to you.

I feel reborn when the sun gets warm.

It's hard but I feel better when I'm not inside.

I get scared you'll leave me soon, 

Even though we call each other every afternoon,

It's true, it's true.

It took a little time, but I, well I know you.


I'm not bored at all, you can call me when you want to call.

Oh, I'm not bored at all, you can call me when you wanna call.


I used to want to show you every single line,

Now it's hard for me to show you anything I write.

Know that I get nervous when we're not alone, 

I wait for you for hours when you're coming home.

When we started talking I got so excited,

I swear I tried to go out every single night.

Know that you will always be the one who's my... 


Spirit desire, spend my time,

Tell me that you're always gonna be in my life.


Oh, I'm not bored at all, you can call me when you wanna call.
Comments