Tigers Jaw - Buona Pizza Chords & Tabs

 

Buona Pizza Chords & Tabs

Tigers Jaw Chords & Tabs

Version: 1 Type: Chords 0 ratings
1 star 2 stars 3 stars 4 stars 5 stars
comments

Buona Pizza Chords

   
-----------------------------------------------------------------------------
			     BUONA PIZZA - Tigers Jaw
-----------------------------------------------------------------------------
Tabbed by: Mean Mr Mustard
Email: Gotchristo@comcast.net

Tuning: Standard

Alright, this is my next Tigers Jaw tab. Should be close to my last, theres not many 
more to do. Make sure to check out my other Tigers Jaws tabs! Leads are down at the bottom 
as usual.


CHORDS:
F#m  -  2-4-4-2-2-2-|
E    -  0-2-2-1-0-0-|
A    -  5-7-7-6-5-5-|
D    -  x-x-0-2-3-2-|


INTRO:
F#m  E   A  (then do lead lick)   x4
Then play a D chord for four measures


VERSE:
A                       F#m
I do what I can to get away from this.
A                                 F#m
Everything that happened has been such a mess.
A                               F#m
In hoping I can see you more, I see you less.
A                                 F#m
Everything that Ive been doing is meaningless.


CHORUS:
D
Everybody thinks were really growing up its in our heads.


VERSE: (With Lead below)
F#m  E   A
           Were innocent.
F#m  E   A
           Lay it to rest.
F#m  E   A
           This cant be it.
F#m  E   A

D
Everybody thinks were really growing up,why cant they get it?

F#m  E   A
          I cant wait forever.
F#m  E   A
          Why cant they get it?
F#m  E   A
          I cant live forever.
F#m  E   A

D
Everybody thinks were really growing up, its in our heads.
[ Tab from: http://www.guitartabs.cc/tabs/t/tigers_jaw/buona_pizza_crd.html ]
A                              F#m
We spend our weeknights laying on our side,
A                            F#m
Worrying about the things we try to hide.
A                            F#m
I can only tell them that Im doing fine.
A                            F#m
Everybody knows that thats a lie.
A                                F#m
Something that is in my head and I cant finish what I started.
A                              F#m
Worry about the things I said, everything I take for granted.
A                           F#m
Nothing that I do is right, everything is only half-right.
A                             F#m
Lock myself up in my room. If I know you, I know you would too.

End on the A



INTRO LICK: (Play whichever way you fancy)
  A
e|--------------------------------|----------0-2-0-2-0--------|
B|--------------5-7-5-7-5---------|--3--2--3-------------2----|
G|----7--6--7--------------6------|---------------------------|
D|--------------------------------|---------------------------|
A|--------------------------------|---------------------------|
E|--------------------------------|---------------------------|


CHORUS: (Also during the intro)Yeah, just play around with this, hard to hear
  D
e|----------------------|
B|-----------------h----|
G|---6---7---6----7-6---|
D|-7------------7-----7-|
A|----------------------|
E|----------------------|


VERSE LEAD:
   F#m          E             A
e|-------------------------------------------------------------|
B|-------------------------------------------------------------|
G|--6--6--6-6-6-9---9--9-9-9-----------------------------------|
D|--x--x--x-x-x-x---x--x-x-x--7--------------------------------|
A|--4--4--4-4-4-7---7--7-7-7--7--7-7-7-7-7-7-7-7-7-7-7-7-7-7---|
E|----------------------------5--5-5-5-5-5-5-5-5-5-5-5-5-5-5---|
                                 /p.m.-----------------------\-|
Comments