Tiger Army - What Happens Chords & Tabs

 

What Happens Chords & Tabs

Tiger Army Chords & Tabs

Version: 1 Type: Bass Tab

What Happens Bass Tab

|-----------|
|---1x1x1x--|
|-3---------|
|-----------|

|----------------------------|----------|---------|
|---1-0-----1-4-3-1----1-0---|-1x1x1x11-|-4x4x44--|
|-3-----3------------3-----3-|----------|---------|
|----------------------------|----------|---------|

|-----0-----0-3-0-----0-------------|-------------|
|---1---1-1---------1---1-4x4x4444--|-------------|
|-3---------------3-----------------|-------------|
|-----------------------------------|-44444-33333-|

[ Tab from: http://www.guitartabs.cc/tabs/t/tiger_army/what_happens_btab.html ]
|----------------------------------------------------|
|-------------------1111----1111----1111----11-------|
|--------11111---33------33------33------33----33-11-|
|--44444---------------------------------------------|

|----------------------|
|----------------1-----|
|--------111111----3-1-|
|-444444---------------|

there it is, its not exact, but i couldnt be assed. its right, just figure it out.
obviously this is for double bass, but on bass guitar it sounds pretty cool. instead
of going silent when everyone else does you can do sweet fills and what not. any other
songs by tiger army you want tabbed, e-mail me at from_the_ether@hotmail.com and i'll
take a crack at them.