Tiger Army - Wander Alone Chords & Tabs

 

Wander Alone Chords & Tabs

Tiger Army Chords & Tabs

Version: 1 Type: Tab 0 ratings
1 star 2 stars 3 stars 4 stars 5 stars
comments

Wander Alone Tab

WANDER ALONE, by Tiger Army
From the album: III Ghost Tigers Rise
Tabbed by Jake Strange.
This is an easy song, but because of all the different
parts it's hard to Tab, but I'll make it as easy as I can.

INTRO:
e|---------------------------------------|
B|---------------------------------------|
G|---------------------------------------|Play 3x, then next part.
D|--22222---22222---77777--7--7---777----|
A|--00000---33333---55555--5--5h6-666----|
E|---------------------------------------|

e|---------------------------------||
B|---------------------------------||
G|---------------------------------|| Play this part 3x(???), then
D|--22222---(2)---2---2----22------|| end it on either an Eminor or
A|--00000----3p---0---0----00------|| an Aminor (I'm not sure)
E|----------------------3-------|--||


VERSES:
e|-----------||-------------||-----------------0-----0-----------||
B|-----------||-------------||-----------------0-------0---------||
G|--2---5----||--2-----5----||--2----5---------0----------0------||
D|--2---5-3--||--2--3--5-5--||--2----5---5-----2-----------------||
A|--0---3-3--||--0--3--3-5--||--0----3---5-----2-----------------||
E|--------1--||-----1----3--||-----------3-----0--------------|--||
   Here are only the chords, play 2x palm-mute on 2nd time.

[ Tab from: http://www.guitartabs.cc/tabs/t/tiger_army/wander_alone_tab.html ]
CHORUS:
e|--------------------------||---------------------------|
B|--------------------------||---------------------------|
G|--2----2-----2------5-----||--2----2-----2------5--10--|
D|--2----2-----2------5--3--||--2----2-----2------5--10--|
A|--0----0--3--0------3--3--||--0----0--3--0------3---8--|
E|-----3---------3-------1--||-----3---------3-----------|...

e|--------------------------||---0----0-------------||
B|--------------------------||---0------0---0-------||
G|--2----2-----2------5-----||---0--------0---0-----||
D|--2----2-----2------5--5--||---2--------------2---||
A|--0----0--3--0------3--5--||---2------------------||
E|-----3---------3----------||---0------------------||
                               Don't repeat this last bar.

Repeat 1st 3 parts of chorus, then end like this:
e|---------------||---------------------------------||
B|---------------||---------------------------------||
G|---------------||---------------------------------||
D|--33333--55555-||--22-222-22-222-22-222--2--------||(pause)
A|--33333--55555-||--00-333-00-333-00-333--0--------||
E|--11111--33333-||---------------------------------||..

e|--------------------------------------------||
B|--------------------------------------------||
G|------------------------------9-9-9-9-9-----||
D|--22222--22222--77777-7--777--9-9-9-9-9-----||
A|--00000--33333--55555-5h6666--7-7-7-7-7-----||
E|-----------------------------------------|--||

I know it's not 100% accurate, but it's all there.
Now here's how this song ends...
e|--------------------------0---------||
B|--------------------------1---------||
G|--9-----7-----5-----4-----2---------||
D|--9-----7-----5-----4-----2---------||
A|--7-----5-----3-----2-----0---------||
E|--------------------------------||--||  That's it.
Comments