Tiger Army - Wander Alone Chords & Tabs

 

Wander Alone Chords & Tabs

Tiger Army Chords & Tabs

Version: 1 Type: Bass Tab 0 ratings
1 star 2 stars 3 stars 4 stars 5 stars
comments

Wander Alone Bass Tab

   
-------------------------------------------------------------------------------
			     SONG NAME - Band Name
-------------------------------------------------------------------------------

Tabbed By : GuNs0fBr1Xt0n
e-mail: thundr1218@aol.com

Tuning:Standard E,A,D,G

INTRO
G|----|---------------|
D|----|---------------|
A|----|---------------|
E|-5~-|-5>------------|

Chorus
G|---------------------------|--------------------------|
D|---------------------------|--------------------------|
A|---------------------------|--End on--7>--------------|
E|--5-3-5-8-5-3-88888-11111--|--------------------------|

VERSE A
G|---------------------|---------|
D|---------------------|---------|
A|-----3>--------------|-End with|
E|--5>------1>---------|--0>-----|

VERSE B
G|-----------------------------|
D|-----------------------------|
A|------3----------------------|
E|5>-1>---3>-------------------|
[ Tab from: http://www.guitartabs.cc/tabs/t/tiger_army/wander_alone_btab.html ]
CHORUS
G|---------------------------|-------------------|-------------------------|
D|---------------------------|-------------------|-------------------------|
A|---------------------------|-------------------|--End with---------------|
E|--5-3-5-8-5-3-88888-11111--|---5---5----9----9-|--0>---------------------|

Post Chorus (2x)
G|---------------------------|
D|---------------------------|
A|---------------------------|
E|--55-888-55-888-55-888-5---|

OUTRO
G|---------------------------------------|
D|---------------------------------------|
A|---------------------------------------|
E|--7~-3~-8~-7~-5~-----------------------|
Structure
Intro 1x
Chorus 3x
Verse A 1x
Verse B 1x
Verse A 1x
Verse A 1x
Verse B 1x
Verse A 1x
Chorus 5x
Post Chorus 2x
Intro 1x
Verse A 1x
Verse B 1x
Verse A 1x
Verse A 1x
Verse B 1x
Verse A 1x
Chorus 5x
Post Chorus 2x
Intro 1x
Outro 1x

~   Let Ring
>   Play multiple times
============================================================================
Comments