Tiger Army - Under Saturns Shadow Chords & Tabs

 

Under Saturns Shadow Chords & Tabs

Tiger Army Chords & Tabs

Version: 2 Type: Bass Tab 0 ratings
1 star 2 stars 3 stars 4 stars 5 stars
comments

Under Saturns Shadow Bass Tab

------------------------------------------------------------------------------- 
                         UNDER SATURN'S SHADOW - Tiger Army 
------------------------------------------------------------------------------- 

By: Syl Delucchi 
If it sounds incorrect e-mal me at: 
SllyslvdrnAFI@aol.com 
or IM me at: 
SllyslvdrnAFI 

This first section is just drums and guitar; but you should beable to hear it 
when the Bass comes in. I'll give you guys the right way to lay, but you'll 
have to find out how many times it's played and he beat. IM me or E-mail me if 
ya have any questions. 

> = Strum more than once 
G|------[Guitar & Drums]-----------------------------------------------------| 
D|---------------------------------------------------------------------------| 
A|---------------------------------------------------------------------------| 
E|---------------------------------------------------------------------------| 
[ Tab from: http://www.guitartabs.cc/tabs/t/tiger_army/under_saturns_shadow_btab_ver_2.html ]
Intro: 
G|---------------------------------------------------------------------------| 
D|---------------------------------------------------------------------------| 
A|-----------5---------------5-------------------5---------------------------| 
E|----0>-------------0>---------------0>-------------------------------------| 

Verses: 
G|---------------------------------------------------------------------------| 
D|---------------------------------------------------------------------------| 
A|--7---------3---------5----------3---------5-------------------------------| 
E|-----7---------3---------5-----------3---------5---------------------------| 

Chorus: I somewhat forget the Chorus, but I'll give it my best shot... 
G|---------------------------------------------------------------------------| 
D|---------------------------------------------------------------------------| 
A|-----------------5----------------------------------3[play this note more--| 
E|---333333333333------------------------------------------------------------| 

P.S I'd like to thak my guitarist, he helped me tab this awesme song 

===============================================================================
Comments