Tiger Army - Under Saturns Shadow Chords & Tabs

 

Under Saturns Shadow Chords & Tabs

Tiger Army Chords & Tabs

Version: 1 Type: Bass Tab 0 ratings
1 star 2 stars 3 stars 4 stars 5 stars
comments

Under Saturns Shadow Bass Tab

------------------------------------------------------------------------------- 
                         UNDER SATURN'S SHADOW - Tiger Army 
------------------------------------------------------------------------------- 

by: Lance (warturtlz_two@hotmail.com) 
e-mail me with any corrections or comments. 

I'm not sure if this is completely right, but it sounds good with the CD. 

> means strum multiple times 

Intro After Guitar Solo 
G|---------------------------------------------------------------------------| 
D|---------------------------------------------------------------------------| 
A|-------5-------5-------5-------5-------------------------------------------| 
E|-0>------0>------0>------0>------------------------------------------------| 
[ Tab from: http://www.guitartabs.cc/tabs/t/tiger_army/under_saturns_shadow_btab.html ]
Verse 
G|---------------------------------------------------------------------------| 
D|---------------------------------------------------------------------------| 
A|-2>---3>---5>---3>---5>----------------------------------------------------| 
E|---------------------------------------------------------------------------| 

Chorus 
G|---------------------------------------------------------------------------| 
D|-5>------------------------------------------------------------------------| 
A|--------5>---3>---5>-------------------------------------------------------| 
E|---------------------------------------------------------------------------| 

Outro 
G|---------------------------------------------------------------------------| 
D|-------------------------2-------------------------------------------------| 
A|------------3--------------------------------------------------------------| 
E|--0------------------------------------------------------------------------| 

This is the complete tab. Last time I forgot the outro. Sorry about that. 

-------------------------------------------------------------------------------
Comments