Tiger Army - True Romance Chords & Tabs

 

True Romance Chords & Tabs

Tiger Army Chords & Tabs

Version: 1 Type: Bass Tab 0 ratings
1 star 2 stars 3 stars 4 stars 5 stars
comments

True Romance Bass Tab

------------------------------------------------------------------------------- 
                        True Romance - Tiger Army 
------------------------------------------------------------------------------- 

Verse+most of the song (play quick) 


G|--------------------------------------------------- 
D|------4-2-4-5-------------------------------------- 
A|--2-2---------------------------------------------- 
E|--------------------------------------------------- 

After 6 verses or so play this and to verse again 

G|--------------------------------------------------- 
D|--------------------------------------------------- 
A|----5-5-5-5-5-------------------------------------- 
E|--------------------------------------------------- 

before the chorus play this 
[ Tab from: http://www.guitartabs.cc/tabs/t/tiger_army/true_romance_btab.html ]
G|--------------------------------------------------- 
D|--------------------------------------------------- 
A|---0-0-0-0-3-3-3-3--------------------------------- 
E|--------------------------------------------------- 


Chorus 

G|--------------------------------------------------- 
D|--------------------------------------------------- 
A|---5-5-----7-7------------------------------------- 
E|-------3-3-----5-5--------------------------------- 


Then you play the verse all the way like the beggining 
but when he sing " I would die couldn't stand the pain" 
you play this variation 

G|--------------------------------------------------- 
D|--------------------------------------------------- 
A|----5-5-5-5-7-7-7-7 8-8-8-8------------------------ 
E|--------------------------------------------------- 

Ending 

G|--------------------------------------------------- 
D|--------------------------------------------------- 
A|--------------------3-3-3-3-2---------------------- 
E|----1-1-1-1-3-3-3-3-------------------------------- 


well,that would be it... If I can play It,then so can you. 
Comments? Caramon_Diablo@hotmail.com
Comments