Tiger Army - Trance Chords & Tabs

 

Trance Chords & Tabs

Tiger Army Chords & Tabs

Version: 1 Type: Tab 0 ratings
1 star 2 stars 3 stars 4 stars 5 stars
comments

Trance Tab

------------------------------------------------------------------------------- 
                               TRANCE - Tiger Army 
------------------------------------------------------------------------------- 

By: Allister (brodieatcafe405@merch.com) Enjoy! It's a bowl full of fun. 

x=mute 
p=pull-off 
(I'm guessing you can figure out the rhythms for yourselves, it's easy.) 

INTRO 
e|-------------------------------------------------------------------------- 
B|-------------------------------------------------------------------------- 
G|-------------------------9-10-9-x----------------------------------------- 
D|-x--9-10-9--x--9-10-9-x--9-10-9-x-9-10-9-x--4-5-4-x--9-10-9-x------------- 
A|-x--9-10-9--x--9-10-9-x--7-8--7-x-9-10-9-x--4-5-4-x--9-10-9-x------------- 
E|-x--7--8-7--x--7-8--7-x-----------7--8---x--2-3-2-x--7-8--7-x------------- 

(A1) 
e|--(girl just look....)---------------------------------------------------- 
B|-------------------------------------------------------------------------- 
G|--------------------------------9-x--9-10-12-10------------------11--10-9- 
D|-9-x-9-10-12-10-9-x--9-10-12-10-9-x--9-10-12-10-9-x--9-10-12-10--11--10-9- 
A|-9-x-9-10-12-10-9-x--9-10-12-10-7-x--7--8-10--8-9-x--9-10-12-10---9---8-7- 
E|-7-x-7-8--10-8--7-x--7-8--10-8------------------7-x--7--8----10---8------- 

(B1) 
e|--------------------------- 
B|--------------------------- 
G|--------------------------- 
D|-9-X--10---9--X------------ 
A|-9-X--10---9--X------------ 
E|-7-X---8---7--X------------ 
[ Tab from: http://www.guitartabs.cc/tabs/t/tiger_army/trance_tab.html ]
BREAKDOWN 
e|--------------------------- 
B|--------------------------- 
G|-----------9--------------- 
D|--9--4--9--9--9--4--9------ 
A|--9--4--9--7--9--4--9------ 
E|--7--2--7-----7--2--7------ 

SOLO (I'm very sorry if this isn't right, but I think it's pretty damn close. I try.) 
e|----------------------------------------------------------------------------------------------------------
B|----------------------------------------------------------------------------------------------------------
G|--------------------9--11------------------9--10--9p--7--0--9--10--9--0--7--------------------------------
D|---9-----9--10--12---------12--10--9--12b-----------------------------------------------------------10--9b
A|9---------------------------------------------------------------------------9--10--12--10--9--7--0--------
E|----------------------------------------------------------------------------------------------------------

(C1) 
e|--------------- 
B|--------------- 
G|-11--10-------- 
D|-11--10-9------ 
A|--9---8-9------ 
E|--------7------ 

From then on out kiddies the tabs pretty much repeat itself. That's all you'll
need to know It's the same power chords overand over and over. If you have any 
questions or comments (or if the tabs are wrong) please e-mail anything to me. 
Don't count on the solo being completely right, those are pretty much just the 
basic notes in it, but I'm sure there are probably more pull-offs and such 
that Nick 13 is playing. But, enjoy what you got. 

-------------------------------------------------------------------------------
Comments