Tiger Army - Outlaw Heart Chords & Tabs

 

Outlaw Heart Chords & Tabs

Tiger Army Chords & Tabs

Version: 1 Type: Bass Tab 0 ratings
1 star 2 stars 3 stars 4 stars 5 stars
comments

Outlaw Heart Bass Tab

------------------------------------------------------------------------------- 
                           OUTLAW HEART - Tiger Army 
------------------------------------------------------------------------------- 

Album: Nocturnal 
Tabbed By: Chris ducko1235@aol.com 

just play it in order 

(intro) 
G|----------------------------------------------------------------------------| 
D|----------------------------------------------------------------------------| 
A|-1---1------4---4--1---1------4---4--1---1------4---4--1---1------4---4-----| 
E|---1---1--2---2------1---1--2---2------1---1--2---2------1---1--2---2-------| 

"deasert mounts on the lonly stars..." 
G|----------------------------------------------------------------------------| 
D|----------------------------------------------------------------------------| 
A|-1---1---4---4---1---1---4---4---1---1---4---4---1---1---4---4--------------| 
E|---1---1---4---4---1---1---4---4---1---1---4---4---1---1---4---4------------| 

"so now i wonder alone..." 
G|----------------------------------------------------------------------------| 
D|-5---5------6---6--5---5------6---6--5---5------6---6--5---5------3---3-----| 
A|---5---5--4---4------5---5--4---4------5---5--4---4------5---5--3---3-------| 
E|----------------------------------------------------------------------------| 

(guitar solo) 
G|----------------------------------------------------------------------------| 
D|----------------------------------------------------------------------------| 
A|-1---1------4---4--1---1------4---4--1---1------4---4--1---1------4---4-----| 
E|---1---1--2---2------1---1--2---2------1---1--2---2------1---1--2---2-------| 

G|----------------------------------------------------------------------------| 
D|----------------------------------------------------------------------------| 
A|-1---1------4---4--1---1----4---4-------------------------------------------| 
E|---1---1--2---2------1---1----2---2-----------------------------------------| 

"a long haired cheating motel braud..." 
G|----------------------------------------------------------------------------| 
D|----------------------------------------------------------------------------| 
A|-1---1------4---4--1---1---4---4---1---1------4---4--1---1---4---4----------| 
E|---1---1--2---2------1---1---2---2---1---1--2---2------1---1---2---2--------| 
[ Tab from: http://www.guitartabs.cc/tabs/t/tiger_army/outlaw_heart_btab.html ]
"ciggarette smoke in the shadows..." 
G|----------------------------------------------------------------------------| 
D|----------------------------------------------------------------------------| 
A|-1---1---4---4---1---1---4---4---1---1---4---4---1---1---4---4--------------| 
E|---1---1---4---4---1---1---4---4---1---1---4---4---1---1---4---4------------| 

x2 
"look to the morning stars..." 
G|----------------------------------------------------------------------------| 
D|-5---5------6---6--5---5------6---6--5---5------6---6--5---5---3---3--------| 
A|---5---5--4---4------5---5--4---4------5---5--4---4------5---5---3---3------| 
E|----------------------------------------------------------------------------| 

(second guitar solo) 
G|----------------------------------------------------------------------------| 
D|----------------------------------------------------------------------------| 
A|-1---1------4---4--1---1------4---4--1---1------4---4--1---1------4---4-----| 
E|---1---1--2---2------1---1--2---2------1---1--2---2------1---1--2---2-------| 

G|----------------------------------------------------------------------------| 
D|-5---5------6---6--5---5------6---6--5---5------6---6--5---5------3---3-----| 
A|---5---5--4---4------5---5--4---4------5---5--4---4------5---5--3---3-------| 
E|----------------------------------------------------------------------------| 

"who will you count on for me..." 
G|----------------------------------------------------------------------------| 
D|-5---5------6---6--5---5------6---6--5---5------6---6--5---5------3---3-----| 
A|---5---5--4---4------5---5--4---4------5---5--4---4------5---5--3---3-------| 
E|----------------------------------------------------------------------------| 

G|----------------------------------------------------------------------------| 
D|-5---5------6---6--5---5------6---6--5---5------6---6-4___________----------| 
A|---5---5--4---4------5---5--4---4------5---5--4---4-------------------------| 
E|----------------------------------------------------------------------------| 

(outro) 
G|----------------------------------------------------------------------------| 
D|----------------------------------------------------------------------------| 
A|-1---1---4---4---1---1---4---4---1---1---4---4---1---1---4_____________-----| 
E|---1---1---4---4---1---1---4---4---1---1---4---4---1---1--------------------| 

-------------------------------------------------------------------------------
Comments