Tiger Army - Last Night Chords & Tabs

 

Last Night Chords & Tabs

Tiger Army Chords & Tabs

Version: 2 Type: Tab 0 ratings
1 star 2 stars 3 stars 4 stars 5 stars
comments

Last Night Tab

I have a solo and figured out the first intro Tab I had done of this song was also the
verse, but I can't figure out the old a uh,...Chorus, so if you fellas can figure it out,
go ahead and add it on because well IGER ARMY NEVER DIE!

Intro & Verse
|--------------------------------------------------------------------|-----------------|
|--------------------------------5---55---5---5---55---5-------------|-----------------|
|--------------------------------5---55---5---5---55---5-----x3------|-7-77777-7-77777-|
|-----2---22---22---2---22---22--3---33---3---5---55---5-------------|-7-77777-7-77777-|
|-----2---22---22---2---22---22--------------------------------------|-----------------|
|-----0---00---00---3---00---00--------------------------------------|-----------------|


solo
|---------------------------------------------------------------------------|
|---------------------------------------------------------------------------|
|---------------------------------------------------------------------------|
|------------------------2-------4-----------------7--5-4-5-4---------------|
|----------------------3----3--5--------------------------------------------|
|------0-----0-3-0--0---------------0----0-3-0---0--------------------------|


|-----------------------------------------0---------------------------------|
|----------------------------------------0----------------------------------|
|---------------------------------------------------------------------------|
|------------------------2-------4------------------------------------------|
|----------------------3----3--5--5--7--------------------------------------|
|------0-----0-3-0--0-------------------------------------------------------|

[ Tab from: http://www.guitartabs.cc/tabs/t/tiger_army/last_night_tab_ver_2.html ]
|---0--0-0-0-0-0--0---0-----2---0--0-0-0-0-2----0---2---0--0-0-0-0-2----0--2-|
|-------------------0---0-1-------------------1---1-------------------1--1---|
|----------------------------------------------------------------------------|
|----------------------------------------------------------------------------|
|----------------------------------------------------------------------------|
|----------------------------------------------------------------------------|


|---3-33-3-3-3-7-5-3-7-5-3-7-5-3-2-2-2-3-5-3-2-3-2-2\0----------------------|
|---------------------------------------------------------------------------|
|---------------------------------------------------------------------------|
|---------------------------------------------------------------------------|
|---------------------------------------------------------------------------|
|---------------------------------------------------------------------------|


|---3-33-3-3-3-7-5-3-7-5-3-7-5-3-2-2-2-2-2-2-2-3-3-3-3-2\0------------------|
|---------------------------------------------------------------------------|
|---------------------------------------------------------------------------|
|---------------------------------------------------------------------------|
|---------------------------------------------------------------------------|
|---------------------------------------------------------------------------|


|--------------------------------------------------------------------|------------------|
|--------------------------------------------------------------------|------------------|
|--------------------------------------------------------------------|------------------|
|---------------------------------------------------------------x3---|------------------|
|--------------------------------------------------------------------|------------------|
|----0-0-0-0-0-3-0-0-0-8--8-8--8-8-8--10--10-10-10-10----------------|12-12-12-12-12-12-|
Comments