Tiger Army - Ghost Tigers Rise Chords & Tabs

 

Ghost Tigers Rise Chords & Tabs

Tiger Army Chords & Tabs

Version: 1 Type: Bass Tab 0 ratings
1 star 2 stars 3 stars 4 stars 5 stars
comments

Ghost Tigers Rise Bass Tab

   
I'm almost 100% on this one.

This is a pretty nice bass solo, mixes up bluegrass style with punk sound
[ Tab from: http://www.guitartabs.cc/tabs/t/tiger_army/ghost_tigers_rise_btab.html ]
Part A
G|---------------------------------------------|
D|---------------------------------------------|
A|-7-7-7-7-----10--10-------888----------------|
E|--7-7-7-7------10--10--66--------------------|
Part B
G|---------------------------------------------|
D|---------------------------------------------|
A|-7-7-7-7--10-9-8-7---------------------------|
E|--7-7-7-7---------10-9-8-7-------------------|
Part C       |    Pluck Hard      |
G|-----------|--------------------|--------------|
D|-----------|-------888------888-|--------------|
A|-7-7-7-7---|-1010------1010-----|--------------|
E|--7-7-7-7--|--------------------|--------------|
              --------------------
G|---------------------------------------------|
D|---------------------------------------------|
A|-7-7-7-7--10-9-8-7-6-------------------------|
E|--7-7-7-7-----------10-9-8-------------------|

Question? Comments? Corrections? Thundr1218@aol.com

-GUNS 0F BR1XT0N-
Comments