Tiger Army - Annabel Lee Chords & Tabs

 

Annabel Lee Chords & Tabs

Tiger Army Chords & Tabs

Version: 1 Type: Bass Tab 0 ratings
1 star 2 stars 3 stars 4 stars 5 stars
comments

Annabel Lee Bass Tab

------------------------------------------------------------------------------- 
                              ANNABEL LEE - Tiger Army 
------------------------------------------------------------------------------- 

Tabbed by: Marcus aka SOYBOMB 

Intro 
G|--------------------------------------------------- 
D|--------------------------------------------------- 
A|-777777----------5-----5-----5-7-8-7-5-7777-------- 
E|-------777777-5-7-7-5-7-7-5-7---------7----7777-5-5 

Verse 1 (play 4x) 
G|---------------------------- 
D|---------------------------- 
A|-777777--------------------- 
E|-------777777-44444-555-7777 
[ Tab from: http://www.guitartabs.cc/tabs/t/tiger_army/annabel_lee_btab.html ]
Chorus (play 4x) 
G|------------------- 
D|------------------- 
A|-7777-------------- 
E|-----8888-5555-3333 

Repeat verse 4 times 

Bridge 
G|----------------------------------- 
D|------------------77777777-99999999 
A|-77777777-99999999----------------- 
E|----------------------------------- 

Repeat Chorus 4 times 

Repeat verse 4 times 

Repeat the bridge 4 times 

Repeat Chorus 4 times 

Outro (play until the song ends) 
G|--------------------------------- 
D|--------------------------------- 
A|-777777----------5-----5--------- 
E|-------777777-5-7-7-5-7-5-555-777 

TIGER ARMY NEVER DIE 

Questions, comments, requests, and Revisions - SOYBOMB@bestweb.net 

Have fun 

-------------------------------------------------------------------------------
Comments