Tiberius - Flying Higher Chords & Tabs

 

Flying Higher Chords & Tabs

Tiberius Chords & Tabs

Version: 1 Type: Tab 0 ratings
1 star 2 stars 3 stars 4 stars 5 stars
comments

Flying Higher Tab

   
  Amin			   C
E---------------------------------------------------------------
B-----1-------1------------1-------1----------------------------
G-------2--------------------2-------2--------------------------
D---2-------2------------2-------2------------------------------
A-0--------------------3----------------------------------------
E---------------------------------------------------------------

  G
E---------------------------------------------------------------
B-----3--------0------------------------------------------------
G------------0--------------------------------------------------
D----------0----------------------------------------------------
A---2-----------------------------------------------------------
E-3-------------------------------------------------------------
[ Tab from: http://www.guitartabs.cc/tabs/t/tiberius/flying_higher_tab.html ]
  Amin                    C
E---------------------------------------------------------------
B-11-000000--11-000000----11-000000--11-000000------------------
G-22-222222--22-222222----00-000000--00-000000------------------
D-22-222222--22-222222----22-222222--22-222222------------------
A-00-000000--00-000000----33-333333--33-333333------------------
E---------------------------------------------------------------

  Amin                    C
E---------------------------------------------------------------
B-11-000000--11-000000----11-000000--11111111-------------------
G-22-222222--22-222222----00-000000--00000000-------------------
D-22-222222--22-222222----22-222222--22222222-------------------
A-00-000000--00-000000----33-333333--33333333-------------------
E---------------------------------------------------------------

Comments