Tianastacia - Cabrobro Chords & Tabs

 

Cabrobro Chords & Tabs

Tianastacia Chords & Tabs

Version: 2 Type: Bass Tab 0 ratings
1 star 2 stars 3 stars 4 stars 5 stars
comments

Cabrobro Bass Tab

   
Band: Tianastácia
Music: Cabrobró 
Album: Tá na boa_
Author: Marcelo Diesel 
E-Mail: marcelo.diesel@bol.com.br

Obs: A música começa na faixa 2 do cd
~~~~=2x

 Intro: (Nessa parte a bateria fica só na caixa)
E--------7-----------7-5-------|--------------------------------------|
A--5h7-5-------5h7-5-----(4x)--|-5h7-7777777-(3x)-9h11-9h11--9h11-(2x)|
D----------5-------------------|--------------------------------------|
G------------------------------|--------------------------------------|
                               ~~~~~~~~~~~~~~~~~~~~~~~~~~~~~~~~~~~~~~

E-3h5-5-3-5-3-5-3-
A----------------- (3x)
D-----------------
G-----------------

Riff1:
No show ao vivo do Tianastácia, 
essa parte é em slap. Eu fiz a tab pelo cd.
O 4 varia em um pop na casa 6 da corda D.
E-3--6-5--3--6-5-4-3-(4x)--5-6-3-6-5-(3x)------------
A----------------------------------------------------
D---------------(6)pop-------------------------------
G----------------------------------------------------
É Tianastácia...
[ Tab from: http://www.guitartabs.cc/tabs/t/tianastacia/cabrobro_btab_ver_2.html ]
Riff2: (obs.: o 1º 3 não repete)
Aqui as notas são tocadas e abafadas(escute com atenção!!!),
depois de um certo tempoas notas vibram por mais tempo.
E-3----------3--3-----3------------------3--3--------
A----------5------2-5---- (3x) --------5-------------
D------5-3-------------------------5-3---------------
G----------------------------------------------------
Ouvi falar...

Riff 2a:
E-0-1-2-3- E depois como no riff 2
A---------
D---------
G---------
Meu pai falava...

Riff3:
E-3--6-5-3--6-5-4-3--6-5-3--6-5-4-3---
A-------------------------------------
D-------------------------------------
G-------------------------------------
Só ñ vacilo...

Riff4:
E-10----10----10--8------8----8-3-----3-----3-----3--------
A------------------------------------------------------(2x)-
D----12----12-------10-----10-----5-----5-----5-----5-----
G-----------------------------------------------------------
Se o cara nasce...

Riff1: Durante o solo 1ªparte do riff 2x e a 2ªparte do 
riff 3x(como no início).

É isso aí. Só fiz algumas correções e mais explicações na tab
já existente. Espero Que ajude. Qualquer dúvida, pedido de tab
reclamações ou conselhos amorosos, email-me.  _     
marcelo.diesel@bol.com.br                     Diesel, a melhor 
                                              banda do Brasil! 
Comments