Tiamat - Wings Of Heaven Chords & Tabs

 

Wings Of Heaven Chords & Tabs

Tiamat Chords & Tabs

Version: 1 Type: Tab 0 ratings
1 star 2 stars 3 stars 4 stars 5 stars
comments

Wings Of Heaven Tab

   
Artist: Tiamat
Album:Prey
Song Name: Wings of Heaven
Tunning: standard
Tabbed by Liz(email at lizteoro@yahoo.com)


A:577XXX
G:355XXX
C:X355XX
E:022XXX or X799XX

Intro(repeat throughout the verse):

E|--------------------------------------|
B|-----1--0-----------------------------|
G|-----------2-2---0--------------------|
D|---2---------------2-2--0-------------|
A|-0------------------------------------|
E|--------------------------3--3--------|


E|--------------------------------------|
B|-----1--0-----------------------------|
G|----------2-2---0---------------------|
D|---2--------------2--2-----0--0-------|
A|-0------------------------------------|
E|------------------------3-------------|

[ Tab from: http://www.guitartabs.cc/tabs/t/tiamat/wings_of_heaven_tab.html ]
Chorus:
   A G C 
   A G C E
   A G C E
   A G C E


I'll be your master and I'll be your slave
Until the day that you will dance avidly on my grave
Seems like a lifetime we've been living this lie
But I can't help keep lying when you undress before my eyes

Chorus:
The wings of heaven are descending
The touch of her naked skin's amending
The skies will collide
Only for a little while
And it will take us trough the night

Thank you my angel like belly dancing concubine
Like Cleopatra you're sleeping safe in a royal shrine 
Thank you for the blood and tears and for the table dance 
Wholeheartedly I thank you dear for our short romance
Comments