Tiamat - Phantasma De Luxe Chords & Tabs

 

Phantasma De Luxe Chords & Tabs

Tiamat Chords & Tabs

Version: 1 Type: Tab 0 ratings
1 star 2 stars 3 stars 4 stars 5 stars
comments

Phantasma De Luxe Tab

   
TIAMAT - Phantasma De Luxe - from the album A Deeper Kind Of Slumber
music and lyrics written by Johan Edlund


Chord file written by Nevyn (Anders Ek)
email: nevyn@flashback.net
       andersek@geocities.com
Solo transcribed by Joonas Autio
email: ornskuge@ksilta.edu.ouka.fi

Chords used:
Am: 002210  G: 320003  Asus: 002200
C: (0)32010  G/B: x20003  E: 022100

                        PHANTASMA DE LUXE

Solo: (this is probably coolest solo Edlund has done)
Transcribed by Joonas Autio (there might be some mistakes...)

E|---------------------------------------------------------------------------
B|---------------------------------------------------------------------------
G|-----4h5----5h7p5--------------------------4h5---5/7p5------7-9b---7-9b----
D|-5-7----------------7-5-7---5-3--------5-7---------------10----------------
A|--------------------------------3-3----------------------------------------
E|---------------------------------------------------------------------------
[ Tab from: http://www.guitartabs.cc/tabs/t/tiamat/phantasma_de_luxe_tab.html ]
E|--------------------------------------------------------------------------
B|------------------------3-------------------------------------------------
G|-12p9----7-5-7b---7p5-----5-3-5----------4h5----5/8-12-----9-7-9----------
D|-------------------------------------5-7----------------------------------
A|--------------------------------------------------------------------------
E|--------------------------------------------------------------------------

E|-------------------------------------------------------------------------
B|------------------8---8brbr-7---7-8-8brbr-7---7-8------------------------
G|-----------7-9-10-------------9-------------9-----9------9h10p7----------
D|----7-9-10---------------------------------------------------------------
A|-10----------------------------------------------------------------------
E|-------------------------------------------------------------------------

E|------------------------------------7----------
B|-8brbr-7---7-8-8brbr-7---7-8-10b-hold bend-----
G|---------9-------------9-----------------------
D|-----------------------------------------------
A|-----------------------------------------------
E|-----------------------------------------------
                        
E|----------------------------------------------------------------
B|----------------8-------8----8-10--8-10-12---10-12-15b----10----
G|--------7b--7-9-----7-9----9------------------------------------                                     
D|-7-9-10---------------------------------------------------------
A|----------------------------------------------------------------
E|----------------------------------------------------------------

Am  G  Am  G  Am  G  Am  G  Am G  Am  G  Am  C  G
Comments