Tiamat - Alterationx Chords & Tabs

 

Alterationx Chords & Tabs

Tiamat Chords & Tabs

Version: 1 Type: Tab 0 ratings
1 star 2 stars 3 stars 4 stars 5 stars
comments

Alterationx Tab

		                Tiamat - ALTERATIONx10

Taken from the album "A deeper kind of slumber"

Transcribed by Thomas Petersson (TIAMAT)
   For Personal Use Only!!

Tune to A=440


Riff 1, Opening riff, Play twice:
|-------------------------------------------------------------------------------0-----------
|-----------0---------------------0---------------------0------------------------0---------
|-------------0---------------------0---------------------0----------------0-------0------
|------2--------2-------------0------0--------------0------0------------0-----------0----
|----2------------2----------5----------5---------7-----------7--------9------------------
|--0-----------------------3--------------------5---------------------7---------------------

 
Riff 2, Dirtortion kicks in, Play twice:
Guitar 1
|--------------------------------------------------------------------------------------------
|--------------------------------------------------------------------------------------------
|--------------------------------------------------------------------------------------------
|--2------2---------5------5---------7------7---------9----9----9----9----9----9--------
|--2------2---------5------5---------7------7---------9----9----9----9----9----7--------
|--0------0---------3------3---------5------5---------7----7----7----7----7----7--------


Riff 2
Guitar 2
|---------------------------------------------------------------------------------------------
|---------------------------------------------------------------------------------------------
|--4------4---------7------7---------9------9---------11---11----11---11----11----11---
|--4------4---------7------7---------9------9---------11---11----11---11----11----11---
|--2------2---------5------5---------7------7---------9-----9-----9-----9-----9-----9-----
|----------------------------------------------------------------------------------------------

Lick 1, Play over Riff 2 Second time (Using a Wah pedal)

|-----------------------------------------------------------------------
|------------------------------------------------------12----12-------
|-------------------12----12-------14-----14--------11----11-------
|--14----14-------12----12-------14------14------------------------
|--14----14-----------------------------------------------------------
|-----------------------------------------------------------------------


Second clean guitar, played on every verse together with Riff 1:

(Also alone at the end of the song)
[ Tab from: http://www.guitartabs.cc/tabs/t/tiamat/alterationx_tab.html ]
|--0----0-------3--3--3--3--0-------0----0--------2--2--2--2--0-----
|--0----0-------3--3--3--3--3-------1----1--------4--4--4--4--4-----
|--0----0-------0--0--0--0--0-------2----2--------4--4--4--4--4-----
|--2----2-------0--0--0--0--0-------2----2--------4--4--4--4--4-----
|--2----2-------2--2--2--2--2-------0----0----------------------------
|--0----0-------3--3--3--3--3------------------------------------------


Riff 3a-The "Jazzy" part in the middle:
(Each part (a+b) played twice)

|-----------------------------------------------------------
|--0--------0----0-----0----0-------0---0---0---0-------
|--0--------0----0-----0----0-------0---0---0---0-------
|--2-------10---10---10---10------9---9---9---9-------
|--2-------10---10---10---10------9---9---9---9-------
|--0-------------------------------------------------------

Riff 3b

|--0--------------------------------------------------------------------------------
|--0--------0---0---0---0-------0---0---0---0------------------------------------
|--0--------3---3---3---3-------0---0---0---0--------0---0---0---0--------0----
|--2--------2---2---2---2-------2---2---2---2--------0---0---0---0--------0----
|--2--------2---2---2---2-------2---2---2---2--------3---3---3---3--------3----
|--0--------0---0---0---0-------0---0---0---0--------3---3---3---3--------3----

Riff 4
(These two chords played repeatedly, jamming with the beat)

|--0-------|------------
|--0-------|----0-------
|--3-------|----0-------
|--2-------|----2-------
|--2-------|----4-------
|--0-------|----2-------

Riff 5
(The part that leads up to the noisy ending)
Guitar 1, played muted

|-------------------------------------------------------------------------------------
|-------------------------------------------------------------------------------------
|-------------------------------------------------------------------------------------
|--2-2-2-2-2-2-2-2--5-5-5-5-5-5-5-5--7-7-7-7-7-7-7-7--9-9-9-9-9-9-9-9---
|--2-2-2-2-2-2-2-2--5-5-5-5-5-5-5-5--7-7-7-7-7-7-7-7--9-9-9-9-9-9-9-9---
|--0-0-0-0-0-0-0-0--3-3-3-3-3-3-3-3--5-5-5-5-5-5-5-5--7-7-7-7-7-7-7-7---

Riff 5
Guitar 2, played muted

|-----------------------------------------------------------------------------------------------
|-----------------------------------------------------------------------------------------------
|--4-4-4-4-4-4-4-4--7-7-7-7-7-7-7-7--9-9-9-9-9-9-9-9--11-11-11-11-11-11-11-11--
|--4-4-4-4-4-4-4-4--7-7-7-7-7-7-7-7--9-9-9-9-9-9-9-9--11-11-11-11-11-11-11-11--
|--2-2-2-2-2-2-2-2--5-5-5-5-5-5-5-5--7-7-7-7-7-7-7-7---9--9---9--9---9--9---9--9---
|------------------------------------------------------------------------------------------------


The noisy ending is easy, play it however You want to!
Good Luck
Comments