Ti - 24s Chords & Tabs

 

24s Chords & Tabs

Ti Chords & Tabs

Version: 1 Type: Tab 0 ratings
1 star 2 stars 3 stars 4 stars 5 stars
comments

24s Tab

Artist: T.I.
Track: 24's
Album: Trap Muzik


E-------------------------------|
B-------------------------------|
G-4-5-4---4-5-4---4-5-7-5-4-2-4-|
D-4-5-4---4-5-4---4-5-7-5-4-2-4-|
A-2-3-2---2-3-2---2-3-5-3-2-0-2-|
E-------------------------------|

E-------------------------------|
B-------------------------------|
G-4-5-4---4-5-4---4-5-7-5-4-2-4-|
D-4-5-4---4-5-4---4-5-7-5-4-2-4-|
A-2-3-2---2-3-2---2-3-5-3-2-0-2-|
E-------------------------------|
[ Tab from: http://www.guitartabs.cc/tabs/t/ti/24s_tab.html ]
E-------------------------------|
B-------------------------------|
G-4-5-4---4-5-4---4-5-7-5-4-2-4-|
D-4-5-4---4-5-4---4-5-7-5-4-2-4-|
A-2-3-2---2-3-2---2-3-5-3-2-0-2-|
E-------------------------------|

E-------------------------------|
B-------------------------------|
G-4-5-4---4-5-4---4-5-7-5-4-2-4-|
D-4-5-4---4-5-4---4-5-7-5-4-2-4-|
A-2-3-2---2-3-2---2-3-5-3-2-0-2-|
E-------------------------------|

Just play that over and over throughout the whole song
Comments