Thyrfing - Vi Gingo Ut I Strid Chords & Tabs

 

Vi Gingo Ut I Strid Chords & Tabs

Thyrfing Chords & Tabs

Version: 1 Type: Tab 0 ratings
1 star 2 stars 3 stars 4 stars 5 stars
comments

Vi Gingo Ut I Strid Tab

   
Band: Thyrfing
Album: Hednaland
Song: Vi Gingo Ut I Strid
Tabbed by: Martijn Wietsma (Darkenelf)
Tab Date: 29-07-2003
Email: dalvanian@yahoo.com

For more tabs from me,
goto: http://www.doomish.com/go/?r=Darkenelf

Standard E Tuning
[ Tab from: http://www.guitartabs.cc/tabs/t/thyrfing/vi_gingo_ut_i_strid_tab.html ]
riff A (intro)
|---------------------------------------------------------|
|---12--10-12-10----10------------------------------------|
|-9--------------12----12---------------------------------|
|---------------------------------------------------------|
|---------------------------------------------------------|
|---------------------------------------------------------|
						(4x)
riff B (chords)
|---------------------------------------------------------|
|---------------------------------------------------------|
|------------2-4-2-----2----------------------------------|
|-2----\-4---2-4-2-----2----------------------------------|
|-2--5-\-2---0-2-0--5--0--5-------------------------------|
|-0--3--------------3-----3-------------------------------|
						(2x)
riff C
|---------------------------------------------------------|
|---------------------------------------------------------|
|---------------------------------------------------------|
|-2-------------------------------------------------------|
|-2--4/5--5-5--7/9--9-9--7-5-4-5--------------------------|
|-0--2/3--3-3--5/7--7-7--5-3-2-3--------------------------|
						(4x)
riff D
|---------------------------------------------------------|
|---------------------------------------------------------|
|------------2-2-2--4-----2-------------------------------|
|-2----\-4---2-2-2--4-----2-------------------------------|
|-2--5-\-2-2-0-0-0--2--5--0--5----------------------------|
|-0--3-----------------3-----3----------------------------|
						(4x)
riff C
|---------------------------------------------------------|
|---------------------------------------------------------|
|---------------------------------------------------------|
|-2-------------------------------------------------------|
|-2--4/5--5-5--7/9--9-9--7-5-4-5--------------------------|
|-0--2/3--3-3--5/7--7-7--5-3-2-3--------------------------|
						(4x)
riff E
|---------------------------------------------------------|
|---------------------------------------------------------|
|---------------------------------------------------------|
|---------------------------------------------------------|
|-9-----5-----9-----5-------------------------------------|
|-7-----3-----7-----3-------------------------------------|
						(1x)
riff F
|---------------------------------------------------------|
|---------------------------------------------------------|
|---------------------------------------------------------|
|---------------------------------------------------------|
|-9999-5555-9999-5555-9999-5555-9999-5555-----------------|
|-7777-3333-7777-3333-7777-3333-7777-3333-----------------|
						(1x)
riff E
|---------------------------------------------------------|
|---------------------------------------------------------|
|---------------------------------------------------------|
|---------------------------------------------------------|
|-9-----5-----9-----5-------------------------------------|
|-7-----3-----7-----3-------------------------------------|
						(1x)
riff F
|---------------------------------------------------------|
|---------------------------------------------------------|
|---------------------------------------------------------|
|---------------------------------------------------------|
|-9999-5555-9999-5555-9999-5555-9999-5555-----------------|
|-7777-3333-7777-3333-7777-3333-7777-3333-----------------|
						(1x)
riff G
|---------------------------------------------------------|
|---------------------------------------------------------|
|---------------------------------------------------------|
|------------2---------7-----------------2---------7------|
|-9--9\5---5\2---------7------9--9\5---5\2---------7------|
|-7--7\3---3\0--00-00--5------7--7\3---3\0--00-00--5------|
                xx xx                       xx xx
						(2x)
riff D
|---------------------------------------------------------|
|---------------------------------------------------------|
|------------2-2-2--4-----2-------------------------------|
|-2----\-4---2-2-2--4-----2-------------------------------|
|-2--5-\-2-2-0-0-0--2--5--0--5----------------------------|
|-0--3-----------------3-----3----------------------------|
						(4x)
Comments