Thyrfing - Sweoland Conqueror Chords & Tabs

 

Sweoland Conqueror Chords & Tabs

Thyrfing Chords & Tabs

Version: 1 Type: Tab 0 ratings
1 star 2 stars 3 stars 4 stars 5 stars
comments

Sweoland Conqueror Tab

   
Band: Thyrfing
Album: Urkraft
Song: Sweoland Conqueror
Tabbed by: Martijn Wietsma (Darkenelf)
Tab Date: 30-04-2003
Email: dalvanian@yahoo.com

Standard E Tuning

riff A:
|------------------------------------------------------------|
|------------------------------------------------------------|
|------------------------------------------------------------|
|----------------3-------------------------------------------|
|-5-5--5-6-5-5---3-5-5--5-6-5-3-5----------------------------|
|-5-5--5-6-5-5-----5-5--5-6-5-3-5----------------------------|
						(16x)
riff B:
|--------------------------------------------------------------------|
|--------------------------------------------------------------------|
|--------------------------------------------------------------------|
|------------7---------------7-5--------------7--------------7-5--7-5|
|-3-3-3-5-5--5----3-3-3-5-5--5-3---3-3-3-5-5--5---3-3-3-5-5--5-3--5-3|
|-3-3-3-5-5-------3-3-3-5-5--------3-3-3-5-5------3-3-3-5-5----------|
  x x x x x       x x x x x        x x x x x      x x x x x

riff C:
|------------------------------------------------------------|
|------------------------------------------------------------|
|------------------------------------------------------------|
|-7--8\7-5/7---7--8\7-5/7------------------------------------|
|-5--6\5-3/5---5--6\5-3/5---7-7-7--7-7-7---------------------|
|---------------------------5-5-5--5-5-5---------------------|
                            x x x  x x x
|------------------------------------------------------------|
|------------------------------------------------------------|
|------------------------------------------------------------|
|-7--8\7-5/7---7--8\7-5/7---5-7-3-5--------------------------|
|-5--6\5-3/5---5--6\5-3/5---3-5-1-3-7------------------------|
|-----------------------------------5------------------------|

riff B:
|--------------------------------------------------------------------|
|--------------------------------------------------------------------|
|--------------------------------------------------------------------|
|------------7---------------7-5--------------7--------------7-5--7-5|
|-3-3-3-5-5--5----3-3-3-5-5--5-3---3-3-3-5-5--5---3-3-3-5-5--5-3--5-3|
|-3-3-3-5-5-------3-3-3-5-5--------3-3-3-5-5------3-3-3-5-5----------|
  x x x x x       x x x x x        x x x x x      x x x x x

riff C:
|------------------------------------------------------------|
|------------------------------------------------------------|
|------------------------------------------------------------|
|-7--8\7-5/7---7--8\7-5/7------------------------------------|
|-5--6\5-3/5---5--6\5-3/5---7-7-7--7-7-7---------------------|
|---------------------------5-5-5--5-5-5---------------------|
                            x x x  x x x
|------------------------------------------------------------|
|------------------------------------------------------------|
|------------------------------------------------------------|
|-7--8\7-5/7---7--8\7-5/7---5-7-3-5--------------------------|
|-5--6\5-3/5---5--6\5-3/5---3-5-1-3-7------------------------|
|-----------------------------------5------------------------|

riff D:
|------------------------------------------------------------|
|------------------------------------------------------------|
|------------------------------------------------------------|
|-5h7-5h7~--5h7-5-5p4h---------------------------------------|
|----------------------5--5p3-1h3--3-3h5h6-5-----------------|
|------------------------------------------------------------|
						(4x)
riff E:
|------------------------------------------------------------|
|------------------------------------------------------------|
|---------------------5^-------------------------------------|
|-7-7--5h7-7--5-------------7-5-7----------------------------|
|-5-5-----------8-7-5-------5-3-5----------------------------|
|------------------------------------------------------------|
						(2x)
riff F:
|------------------------------------------------------------|
|------------------------------------------------------------|
|------------------------------------------------------------|
|-7-7-7-7--7-7-7--5--5-5-5--3--3-3-3--5-7--------------------|
|-5-5-5-5--5-5-5--3--3-3-3--1--1-1-1--3-5--------------------|
|------------------------------------------------------------|
    x x    x x       x x x
						(4x)
riff G:
|------------------------------------------------------------|
|------------------------------------------------------------|
|------------------------------------------------------------|
|-7-7--------7-7--------10-10--------7-5---------------------|
|-5-5--5555--5-5--5555---8--8--8888--5-3---------------------|
|------------------------------------------------------------|
  x    xxxx  x    xxxx         xxxx		(2x)
[ Tab from: http://www.guitartabs.cc/tabs/t/thyrfing/sweoland_conqueror_tab.html ]
riff F:
|------------------------------------------------------------|
|------------------------------------------------------------|
|------------------------------------------------------------|
|-7-7-7-7--7-7-7--5--5-5-5--3--3-3-3--5-7--------------------|
|-5-5-5-5--5-5-5--3--3-3-3--1--1-1-1--3-5--------------------|
|------------------------------------------------------------|
    x x    x x       x x x
						(4x)
riff G:
|------------------------------------------------------------|
|------------------------------------------------------------|
|------------------------------------------------------------|
|-7-7--------7-7--------10-10--------7-5---------------------|
|-5-5--5555--5-5--5555---8--8--8888--5-3---------------------|
|------------------------------------------------------------|
  x    xxxx  x    xxxx         xxxx		(2x)

riff B:
|--------------------------------------------------------------------|
|--------------------------------------------------------------------|
|--------------------------------------------------------------------|
|------------7---------------7-5--------------7--------------7-5--7-5|
|-3-3-3-5-5--5----3-3-3-5-5--5-3---3-3-3-5-5--5---3-3-3-5-5--5-3--5-3|
|-3-3-3-5-5-------3-3-3-5-5--------3-3-3-5-5------3-3-3-5-5----------|
  x x x x x       x x x x x        x x x x x      x x x x x

riff C:
|------------------------------------------------------------|
|------------------------------------------------------------|
|------------------------------------------------------------|
|-7--8\7-5/7---7--8\7-5/7------------------------------------|
|-5--6\5-3/5---5--6\5-3/5---7-7-7--7-7-7---------------------|
|---------------------------5-5-5--5-5-5---------------------|
                            x x x  x x x
|------------------------------------------------------------|
|------------------------------------------------------------|
|------------------------------------------------------------|
|-7--8\7-5/7---7--8\7-5/7---5-7-3-5--------------------------|
|-5--6\5-3/5---5--6\5-3/5---3-5-1-3-7------------------------|
|-----------------------------------5------------------------|

riff B:
|--------------------------------------------------------------------|
|--------------------------------------------------------------------|
|--------------------------------------------------------------------|
|------------7---------------7-5--------------7--------------7-5--7-5|
|-3-3-3-5-5--5----3-3-3-5-5--5-3---3-3-3-5-5--5---3-3-3-5-5--5-3--5-3|
|-3-3-3-5-5-------3-3-3-5-5--------3-3-3-5-5------3-3-3-5-5----------|
  x x x x x       x x x x x        x x x x x      x x x x x

riff C:
|------------------------------------------------------------|
|------------------------------------------------------------|
|------------------------------------------------------------|
|-7--8\7-5/7---7--8\7-5/7------------------------------------|
|-5--6\5-3/5---5--6\5-3/5---7-7-7--7-7-7---------------------|
|---------------------------5-5-5--5-5-5---------------------|
                            x x x  x x x
|------------------------------------------------------------|
|------------------------------------------------------------|
|------------------------------------------------------------|
|-7--8\7-5/7---7--8\7-5/7---5-7-3-5--------------------------|
|-5--6\5-3/5---5--6\5-3/5---3-5-1-3-7------------------------|
|-----------------------------------5------------------------|

riff D:
|------------------------------------------------------------|
|------------------------------------------------------------|
|------------------------------------------------------------|
|-5h7-5h7~--5h7-5-5p4h---------------------------------------|
|----------------------5--5p3-1h3--3-3h5h6-5-----------------|
|------------------------------------------------------------|
						(4x)
riff H:
|------------------------------------------------------------|
|------------------------------------------------------------|
|------------------------------------------------------------|
|------------------------------------------------------------|
|-5--------8-10-8-7--------5-5--5-3-5-5--5-5-----------------|
|-3--------6--8-6-5--------3-3--3-1-3-3--3-3-----------------|
			   x			(2x)
riff I:
|------------------------------------------------------------|
|------------------------------------------------------------|
|------------------------------------------------------------|
|------------------------------------------------------------|
|-5-5--5\3/5-5---8-10-8-7-----5-5--5\3/5-5--5-5--------------|
|-3-3--3\1/3-3---6--8-6-5-----3-3--3\1/3-3--3-3--------------|

riff J:
|------------------------------------------------------------|
|------------------------------------------------------------|
|------------------------------------------------------------|
|------------------------------------------------------------|
|-5-5--5\3/5-5---8-10-8-7-5----5-5--5\3/5-5--3-5-------------|
|-3-3--3\1/3-3---6--8-6-5-3----3-3--3\1/3-3--1-3-------------|
                      x x             x x 	(4x)
riff K
|------------------------------------------------------------|
|------------------------------------------------------------|
|------------------------------------------------------------|
|------------------------------------------------------------|
|-5-5--5\3/5-5---8-10-8-7-----5-5--5\3/5-5--3-5--------------|
|-3-3--3\1/3-3---6--8-6-5-----3-3--3\1/3-3--1-3--------------|
					    x 	(1x)
Comments