Thyrfing - From Wilderness Came Death Chords & Tabs

 

From Wilderness Came Death Chords & Tabs

Thyrfing Chords & Tabs

Version: 1 Type: Tab 0 ratings
1 star 2 stars 3 stars 4 stars 5 stars
comments

From Wilderness Came Death Tab

   
Band: Thyrfing
Album: Valor Galga
Song: From Wilderness Came Death
Tabbed by: Martijn Wietsma (Darkenelf)
Email: dalvanian@yahoo.com

Tune down to D

Intro:
Riff A:
e|-------------------------------------------------------------|
B|-------------------------------------------------------------|
G|-------------------------------------------------------------|
D|-10/7--7-7-7-7--10/7--7-7-7-7--10/7--7-7-7-7-----------------|
A|--8/5--5-5-5-5---8/5--5-5-5-5---8/5--5-5-5-5--8-8-8--10-10-10|
E|----------------------------------------------6-6-6---8--8--8|
                                                . .     .  .
e|-------------------------------------------------------------|
B|-------------------------------------------------------------|
G|-------------------------------------------------------------|
D|-10/7--7-7-7-7--10/7--7-7-7-7--10/7--7-7-7-7-----------------|
A|--8/5--5-5-5-5---8/5--5-5-5-5---8/5--5-5-5-5--8-8-8--10-10-10|
E|----------------------------------------------6-6-6---8--8--8|
                                                . .     .  .
e|-------------------------------------------------------------|
B|-------------------------------------------------------------|
G|-------------------------------------------------------------|
D|-10/7--7-7-7-7--10/7--7-7-7-7--10/7--7-7-7-7-----------------|
A|--8/5--5-5-5-5---8/5--5-5-5-5---8/5--5-5-5-5--8-8-8--10-10-10|
E|----------------------------------------------6-6-6---8--8--8|
                                                . .     .  .
e|-------------------------------------------------------------|
B|-------------------------------------------------------------|
G|-------------------------------------------------------------|
D|-10/7--7-7-7-7--10/7--7-7-7-7--10/7--7-7-7-7-----------------|
A|--8/5--5-5-5-5---8/5--5-5-5-5---8/5--5-5-5-5--8-8-8--10-10-10|
E|----------------------------------------------6-6-6---8--8--8|
                                                . .     .  .

Riff B:
e|-------------------------------------------------------------|
B|-------------------------------------------------------------|
G|-------------------------------------------------------------|
D|----12----12----12----7--------12----12----12----7-----------|
A|----12----12----12----7--------12----12----12----7-----------|
E|-10----10----10-----5-------10----10----10-----5-------------|

e|-------------------------------------------------------------|
B|-------------------------------------------------------------|
G|-------------------------------------------------------------|
D|----12----12----12----7--------12----12----12----7-----------|
A|----12----12----12----7--------12----12----12----7-----------|
E|-10----10----10-----5-------10----10----10-----5-------------|

Riff A:
e|-------------------------------------------------------------|
B|-------------------------------------------------------------|
G|-------------------------------------------------------------|
D|-10/7--7-7-7-7--10/7--7-7-7-7--10/7--7-7-7-7-----------------|
A|--8/5--5-5-5-5---8/5--5-5-5-5---8/5--5-5-5-5--8-8-8--10-10-10|
E|----------------------------------------------6-6-6---8--8--8|
                                                . .     .  .
e|-------------------------------------------------------------|
B|-------------------------------------------------------------|
G|-------------------------------------------------------------|
D|-10/7--7-7-7-7--10/7--7-7-7-7--10/7--7-7-7-7-----------------|
A|--8/5--5-5-5-5---8/5--5-5-5-5---8/5--5-5-5-5--8-8-8--10-10-10|
E|----------------------------------------------6-6-6---8--8--8|
                                                . .     .  .
e|-------------------------------------------------------------|
B|-------------------------------------------------------------|
G|-------------------------------------------------------------|
D|-10/7--7-7-7-7--10/7--7-7-7-7--10/7--7-7-7-7-----------------|
A|--8/5--5-5-5-5---8/5--5-5-5-5---8/5--5-5-5-5--8-8-8--10-10-10|
E|----------------------------------------------6-6-6---8--8--8|
                                                . .     .  .
e|-------------------------------------------------------------|
B|-------------------------------------------------------------|
G|-------------------------------------------------------------|
D|-10/7--7-7-7-7--10/7--7-7-7-7--10/7--7-7-7-7-----------------|
A|--8/5--5-5-5-5---8/5--5-5-5-5---8/5--5-5-5-5--8-8-8--10-10-10|
E|----------------------------------------------6-6-6---8--8--8|
                                                . .     .  .
Riff B:
e|-------------------------------------------------------------|
B|-------------------------------------------------------------|
G|-------------------------------------------------------------|
D|----12----12----12----7--------12----12----12----7-----------|
A|----12----12----12----7--------12----12----12----7-----------|
E|-10----10----10-----5-------10----10----10-----5-------------|

e|-------------------------------------------------------------|
B|-------------------------------------------------------------|
G|-------------------------------------------------------------|
D|----12----12----12----7--------12----12----12----7-----------|
A|----12----12----12----7--------12----12----12----7-----------|
E|-10----10----10-----5-------10----10----10-----5-------------|

Riff C:
e|-------------------------------------------------------------|
B|-------------------------------------------------------------|
G|-------------------------------------------------------------|
D|-7--5-5--7---------------------------------------------------|
A|-5--3-3--5---------------------------------------------------|
E|-------------------------------------------------------------|

Riff D:
e|-------------------------------------------------------------|
B|-------------------------------------------------------------|
G|-------------------------------------------------------------|
D|-7--5-5--7---7/9/10/12---7--5-5--7------7--------------------|
A|-5--3-3--5---5/7/-8/10---5--3-3--5---7--7--------------------|
E|-------------------------------------5-----------------------|

e|-------------------------------------------------------------|
B|-------------------------------------------------------------|
G|-------------------------------------------------------------|
D|-7--5-5--7---7/9/10/12---7--5-5--7------7--------------------|
A|-5--3-3--5---5/7/-8/10---5--3-3--5---7--7--------------------|
E|-------------------------------------5-----------------------|

e|-------------------------------------------------------------|
B|-------------------------------------------------------------|
G|-------------------------------------------------------------|
D|-7--5-5--7---7/9/10/12---7--5-5--7------7--------------------|
A|-5--3-3--5---5/7/-8/10---5--3-3--5---7--7--------------------|
E|-------------------------------------5-----------------------|

e|-------------------------------------------------------------|
B|-------------------------------------------------------------|
G|-------------------------------------------------------------|
D|-7--5-5--7---7/9/10/12---7--5-5--7------7--------------------|
A|-5--3-3--5---5/7/-8/10---5--3-3--5---7--7--------------------|
E|-------------------------------------5-----------------------|

Riff E
e|-------------------------------------------------------------|
B|-------------------------------------------------------------|
G|---7----7----7---------------7----7----7---------------------|
D|---7----7----7---7/8/10------7----7----7--7/8/10-----10----8-|
A|-5----5----5-----5/6/-8---5-----5----5----5/6/-8-----10----8-|
E|-------------------------------------------------888---666---|
                                                   ...   ...

e|-------------------------------------------------------------|
B|-------------------------------------------------------------|
G|---7----7----7-----------------------------------------------|
D|---7----7----7---7/8/10--------------------------------------|
A|-5----5----5-----5/6/-8--------------------------------------|
E|-------------------------------------------------------------|

Riff C:
e|-------------------------------------------------------------|
B|-------------------------------------------------------------|
G|-------------------------------------------------------------|
D|-7--5-5--7---------------------------------------------------|
A|-5--3-3--5---------------------------------------------------|
E|-------------------------------------------------------------|

Riff D:
e|-------------------------------------------------------------|
B|-------------------------------------------------------------|
G|-------------------------------------------------------------|
D|-7--5-5--7---7/9/10/12---7--5-5--7------7--------------------|
A|-5--3-3--5---5/7/-8/10---5--3-3--5---7--7--------------------|
E|-------------------------------------5-----------------------|

e|-------------------------------------------------------------|
B|-------------------------------------------------------------|
G|-------------------------------------------------------------|
D|-7--5-5--7---7/9/10/12---7--5-5--7------7--------------------|
A|-5--3-3--5---5/7/-8/10---5--3-3--5---7--7--------------------|
E|-------------------------------------5-----------------------|

e|-------------------------------------------------------------|
B|-------------------------------------------------------------|
G|-------------------------------------------------------------|
D|-7--5-5--7---7/9/10/12---7--5-5--7------7--------------------|
A|-5--3-3--5---5/7/-8/10---5--3-3--5---7--7--------------------|
E|-------------------------------------5-----------------------|

e|-------------------------------------------------------------|
B|-------------------------------------------------------------|
G|-------------------------------------------------------------|
D|-7--5-5--7---7/9/10/12---7--5-5--7------7--------------------|
A|-5--3-3--5---5/7/-8/10---5--3-3--5---7--7--------------------|
E|-------------------------------------5-----------------------|
[ Tab from: http://www.guitartabs.cc/tabs/t/thyrfing/from_wilderness_came_death_tab.html ]
Riff E
e|-------------------------------------------------------------|
B|-------------------------------------------------------------|
G|---7----7----7---------------7----7----7---------------------|
D|---7----7----7---7/8/10------7----7----7--7/8/10-----10----8-|
A|-5----5----5-----5/6/-8---5-----5----5----5/6/-8-----10----8-|
E|-------------------------------------------------888---666---|
                                                   ...   ...

e|-------------------------------------------------------------|
B|-------------------------------------------------------------|
G|---7----7----7-----------------------------------------------|
D|---7----7----7---7/8/10--------------------------------------|
A|-5----5----5-----5/6/-8--------------------------------------|
E|-------------------------------------------------------------|

Riff F
e|-------------------------------------------------------------|
B|-------------------------------------------------------------|
G|---7---7----7----7-----8----8----8----8----------------------|
D|---7---7----7----7-----8----8----8----8---8\7\5--------------|
A|-5---5----5----5-----6----6----6----6-----6\5\3--------------|
E|-------------------------------------------------------------|

Riff B:
e|-------------------------------------------------------------|
B|-------------------------------------------------------------|
G|-------------------------------------------------------------|
D|----12----12----12----7--------12----12----12----7-----------|
A|----12----12----12----7--------12----12----12----7-----------|
E|-10----10----10-----5-------10----10----10-----5-------------|

e|-------------------------------------------------------------|
B|-------------------------------------------------------------|
G|-------------------------------------------------------------|
D|----12----12----12----7--------12----12----12----7-----------|
A|----12----12----12----7--------12----12----12----7-----------|
E|-10----10----10-----5-------10----10----10-----5-------------|

Riff C:
e|-------------------------------------------------------------|
B|-------------------------------------------------------------|
G|-------------------------------------------------------------|
D|-7--5-5--7---------------------------------------------------|
A|-5--3-3--5---------------------------------------------------|
E|-------------------------------------------------------------|

Riff D:
e|-------------------------------------------------------------|
B|-------------------------------------------------------------|
G|-------------------------------------------------------------|
D|-7--5-5--7---7/9/10/12---7--5-5--7------7--------------------|
A|-5--3-3--5---5/7/-8/10---5--3-3--5---7--7--------------------|
E|-------------------------------------5-----------------------|

e|-------------------------------------------------------------|
B|-------------------------------------------------------------|
G|-------------------------------------------------------------|
D|-7--5-5--7---7/9/10/12---7--5-5--7------7--------------------|
A|-5--3-3--5---5/7/-8/10---5--3-3--5---7--7--------------------|
E|-------------------------------------5-----------------------|

e|-------------------------------------------------------------|
B|-------------------------------------------------------------|
G|-------------------------------------------------------------|
D|-7--5-5--7---7/9/10/12---7--5-5--7------7--------------------|
A|-5--3-3--5---5/7/-8/10---5--3-3--5---7--7--------------------|
E|-------------------------------------5-----------------------|

e|-------------------------------------------------------------|
B|-------------------------------------------------------------|
G|-------------------------------------------------------------|
D|-7--5-5--7---7/9/10/12---7--5-5--7------7--------------------|
A|-5--3-3--5---5/7/-8/10---5--3-3--5---7--7--------------------|
E|-------------------------------------5-----------------------|

Riff E
e|-------------------------------------------------------------|
B|-------------------------------------------------------------|
G|---7----7----7---------------7----7----7---------------------|
D|---7----7----7---7/8/10------7----7----7--7/8/10-----10----8-|
A|-5----5----5-----5/6/-8---5-----5----5----5/6/-8-----10----8-|
E|-------------------------------------------------888---666---|
                                                   ...   ...
e|-------------------------------------------------------------|
B|-------------------------------------------------------------|
G|---7----7----7-----------------------------------------------|
D|---7----7----7---7/8/10--------------------------------------|
A|-5----5----5-----5/6/-8--------------------------------------|
E|-------------------------------------------------------------|

Riff C:
e|-------------------------------------------------------------|
B|-------------------------------------------------------------|
G|-------------------------------------------------------------|
D|-7--5-5--7---------------------------------------------------|
A|-5--3-3--5---------------------------------------------------|
E|-------------------------------------------------------------|

Riff D:
e|-------------------------------------------------------------|
B|-------------------------------------------------------------|
G|-------------------------------------------------------------|
D|-7--5-5--7---7/9/10/12---7--5-5--7------7--------------------|
A|-5--3-3--5---5/7/-8/10---5--3-3--5---7--7--------------------|
E|-------------------------------------5-----------------------|

e|-------------------------------------------------------------|
B|-------------------------------------------------------------|
G|-------------------------------------------------------------|
D|-7--5-5--7---7/9/10/12---7--5-5--7------7--------------------|
A|-5--3-3--5---5/7/-8/10---5--3-3--5---7--7--------------------|
E|-------------------------------------5-----------------------|

e|-------------------------------------------------------------|
B|-------------------------------------------------------------|
G|-------------------------------------------------------------|
D|-7--5-5--7---7/9/10/12---7--5-5--7------7--------------------|
A|-5--3-3--5---5/7/-8/10---5--3-3--5---7--7--------------------|
E|-------------------------------------5-----------------------|

e|-------------------------------------------------------------|
B|-------------------------------------------------------------|
G|-------------------------------------------------------------|
D|-7--5-5--7---7/9/10/12---7--5-5--7------7--------------------|
A|-5--3-3--5---5/7/-8/10---5--3-3--5---7--7--------------------|
E|-------------------------------------5-----------------------|

Riff E
e|-------------------------------------------------------------|
B|-------------------------------------------------------------|
G|---7----7----7---------------7----7----7---------------------|
D|---7----7----7---7/8/10------7----7----7--7/8/10-----10----8-|
A|-5----5----5-----5/6/-8---5-----5----5----5/6/-8-----10----8-|
E|-------------------------------------------------888---666---|
                                                   ...   ...

e|-------------------------------------------------------------|
B|-------------------------------------------------------------|
G|---7----7----7-----------------------------------------------|
D|---7----7----7---7/8/10-------------------8---6--------------|
A|-5----5----5-----5/6/-8-------------------6---4--------------|
E|-------------------------------------------------------------|

Riff H (just listen to the song very well, it's just one chord, palm
muted up and down. dunno how to transcribe that.
e|-------------------------------------------------------------|
B|-------------------------------------------------------------|
G|-------------------------------------------------------------|
D|--6-6-6-6-6-6-6-6-6-6--7-9-----------------------------------|
A|--4-4-4-4-4-4-4-4-4-4--5-7-----------------------------------|
E|-----------------------.-------------------------------------|

Riff I
e|-------------------------------------------------------------|
B|-------------------------------------------------------------|
G|-------------------------------------------------------------|
D|-10-10---8--6-----10--10--8---(6)----------------------------|
A|--8--8---6--4------8---8--6---(4)----------------------------|
E|--------------------------.----------------------------------|

e|-------------------------------------------------------------|
B|-------------------------------------------------------------|
G|-------------------------------------------------------------|
D|-10-10---8--6-----10--10--8---(6)----------------------------|
A|--8--8---6--4------8---8--6---(4)----------------------------|
E|--------------------------.----------------------------------|

Riff H
e|-------------------------------------------------------------|
B|-------------------------------------------------------------|
G|-------------------------------------------------------------|
D|--6-6-6-6-6-6-6-6-6-6--7-9-----------------------------------|
A|--4-4-4-4-4-4-4-4-4-4--5-7-----------------------------------|
E|-----------------------.-------------------------------------|

e|-------------------------------------------------------------|
B|-------------------------------------------------------------|
G|-------------------------------------------------------------|
D|--6-6-6-6-6-6-6-6-6-6--7-9-----------------------------------|
A|--4-4-4-4-4-4-4-4-4-4--5-7-----------------------------------|
E|-----------------------.-------------------------------------|

Riff I
e|-------------------------------------------------------------|
B|-------------------------------------------------------------|
G|-------------------------------------------------------------|
D|-10-10---8--6-----10--10--8---(6)----------------------------|
A|--8--8---6--4------8---8--6---(4)----------------------------|
E|--------------------------.----------------------------------|

e|-------------------------------------------------------------|
B|-------------------------------------------------------------|
G|-------------------------------------------------------------|
D|-10-10---8--6-----10--10--8---(6)----------------------------|
A|--8--8---6--4------8---8--6---(4)----------------------------|
E|--------------------------.----------------------------------|
Comments