Thursday - War All The Time Chords & Tabs

 

War All The Time Chords & Tabs

Thursday Chords & Tabs

Version: 5 Type: Tab 0 ratings
1 star 2 stars 3 stars 4 stars 5 stars
comments

War All The Time Tab

   
part 1
e:---------------------------------------------------
B:---------------------------------------------------
G:---------------------------------------------------
D:---------------------------------------------------
A:---------------------------------------------------
D:33333333---5555---2222---77777777---9999---10101010


part 2
e:---------------------------
B:---------------------------
G:12-9-12-9------------------
D:----------9-10-9-7-9-10-9-7
A:---------------------------
D:---------------------------

part 3
e:---------------------------------------------
B:13-13-13-12-12-12----------------------------
G:------------------14-14-14-12-12-12-10-10-9-9
D:---------------------------------------------
A:---------------------------------------------
D:---------------------------------------------

part 4
e:---------------------------------15-15-15-13-13-
B:13-13-13-13-13-13-13-13-------------------------
G:------------------------12-12-12----------------
D:------------------------------------------------
A:------------------------------------------------
D:------------------------------------------------
[ Tab from: http://www.guitartabs.cc/tabs/t/thursday/war_all_the_time_tab_ver_5.html ]
part 5
e:15~---13~---12~---------------------------------------------------
B:-------------------13~---12-13-12-13-12-13-12-13-12-13-12-13-12-13
G:------------------------------------------------------------------
D:------------------------------------------------------------------
A:------------------------------------------------------------------
D:------------------------------------------------------------------

part 6
e:--------------
B:13-13-13-13-13
G:--------------
D:10-10-10-10-10        play this the whole brake down
A:--------------
D:--------------

part 7
e:-------------------              e:--------------------
B:--------13-13-13-13              B:--------12-12-12-12-
G:--------10-10-10-10              G:--------9--9--9--9--
D:3-3-3-3------------   play twice D:7-7-7-7-------------     play twice
A:3-3-3-3------------              A:7-7-7-7-------------
D:3-3-3-3------------              D:7-7-7-7-------------

part 8
e:----------------------------------------------------------------
B:----------------------------------------------------------------
G:----------------------------------------------------------------
D:3-3-3-3-3-3-3-3-5-5-5-5-5-5-5-5-7-7-7-7-7-7-7-7-7-7-7-7-7-7-7-7-
A:3-3-3-3-3-3-3-3-5-5-5-5-5-5-5-5-7-7-7-7-7-7-7-7-7-7-7-7-7-7-7-7-
D:3-3-3-3-3-3-3-3-5-5-5-5-5-5-5-5-7-7-7-7-7-7-7-7-7-7-7-7-7-7-7-7-

this is 100% correct
Comments