Thursday - War All The Time Chords & Tabs

 

War All The Time Chords & Tabs

Thursday Chords & Tabs

Version: 4 Type: Tab 0 ratings
1 star 2 stars 3 stars 4 stars 5 stars
comments

War All The Time Tab

   
Thursday-War All The Time
Tabbed by:Emilio
Email:agomez8470

| /  slide up
| \  slide down
| h  hammer-on
| p  pull-off
| ~  vibrato
| +  harmonic
| x Mute Note

Tuning:DADGBE
[ Tab from: http://www.guitartabs.cc/tabs/t/thursday/war_all_the_time_tab_ver_4.html ]
Guitar 2 Intro/verse/chorus play until almost the end of the song 
e|--------------------------------------------------------------------------
B|--------------------------------------------------------------------------
G|--------------------------------------------------------------------------
D|--------------------------------------------------------------------------
A|--0-0-0-0-0-0-0-0-0-0-0-0-0-0-0-0-0-0-0-0-0-0-0-0-0--0--0--0--0-----------
E|--3-3-3-3-3-3-3-3/5-5-5\2-2-2/7-7-7-7-7-7-7-7/9-9-9/10-10 10 10-----------
Guitar 1 intro harmonics with echo play 2 times
e|--------------------------------------------------------------------------
B|--------------------------------------------------------------------------
G|--7*--5*------------------------------------------------------------------
D|--7*--5*------7*----------------------------------------------------------
A|----------5*--7*----------------------------------------------------------
E|----------5*--------------------------------------------------------------
Guitar 1-verse play 3 times
e|--------------------------------------------------------------------------
B|--8-6-5-------------------------------------------------------------------
G|--------5-4h5-4h5-4h5-----------------------------------------------------
D|--------------------------------------------------------------------------
A|--------------------------------------------------------------------------
E|--------------------------------------------------------------------------
Guitar 2 Chorus
e|--------------------------------------------------------------------------
B|--------------------------------------------------------------------------
G|--------------------------------------------------------------------------
D|--------------------------------------------------------------------------
A|--0-0-0-0-0-0-0-0-0-0-0-0-0-0-0-0-0-0-0-0-0-0-0-0-0--0--0--0--0-----------
E|--3-3-3-3-3-3-3-3/5-5-5\2-2-2/7-7-7-7-7-7-7-7/9-9-9/10-10 10 10----------- 
Guitar 1 Chorus
e|--------------------------------------------------------------------------
B|--8-5\3-3-----------------------------------------------------------------
G|----------5\4\2--4h5-4p2--4h5-4p2-----------------------------------------
D|--------------------------------------------------------------------------
A|--------------------------------------------------------------------------
E|--------------------------------------------------------------------------
Guitar 1 2nd Verse play as many times
e|--8-8-8-7-7-7-------------------------------------------------------------
B|--------------10-10-10-8-8-8-6-6-5-5--------------------------------------
G|--------------------------------------------------------------------------
D|--------------------------------------------------------------------------
A|--------------------------------------------------------------------------
E|--------------------------------------------------------------------------
Guitar 2 2nd Verse
e|--------------------------------------------------------------------------
B|--------------------------------------------------------------------------
G|--------------------------------------------------------------------------
D|--------------------------------------------------------------------------
A|--0-0-0-0-0-0-0-0-0-0-0-0-0-0-0-0-0-0-0-0-0-0-0-0-0--0--0--0--0-----------
E|--3-3-3-3-3-3-3-3/5-5-5\2-2-2/7-7-7-7-7-7-7-7/9-9-9/10-10 10 10-----------
Guitar 1 2nd Chorus
e|------------------------------------15-15-15-13-13------------------------
B|--12h13-12h13-12h13-12h13-12----------------------------------------------
G|-----------------------------14-14----------------------------------------
D|--------------------------------------------------------------------------
A|--------------------------------------------------------------------------
E|--------------------------------------------------------------------------
Guitar 2 2nd Chorus
e|--------------------------------------------------------------------------
B|--------------------------------------------------------------------------
G|--------------------------------------------------------------------------
D|--------------------------------------------------------------------------
A|--0-0-0-0-0-0-0-0-0-0-0-0-0-0-0-0-0-0-0-0-0-0-0-0-0--0--0--0--0-----------
E|--3-3-3-3-3-3-3-3/5-5-5\2-2-2/7-7-7-7-7-7-7-7/9-9-9/10-10 10 10-----------
Guitar 1 3rd Verse
e|--15-13-12----------------------------------------------------------------
B|-----------13-12h13-12\10-------------------------------------------------
G|--------------------------------------------------------------------------
D|--------------------------------------------------------------------------
A|--------------------------------------------------------------------------
E|--------------------------------------------------------------------------
Guitar 2 3rd Verse
B|--------------------------------------------------------------------------
G|--------------------------------------------------------------------------
D|--------------------------------------------------------------------------
A|--0-0-0-0-0-0-0-0-0-0-0-0-0-0-0-0-0-0-0-0-0-0-0-0-0--0--0--0--0-----------
E|--3-3-3-3-3-3-3-3/5-5-5\2-2-2/7-7-7-7-7-7-7-7/9-9-9/10-10 10 10-----------
Guitar 1 Chorus play until distorted part (strum continuously)
e|-121212121212-15151515151515----------------------------------------------
B|-131313131313-13131313131313----------------------------------------------
G|-141414141414-14141414141414----------------------------------------------
D|--------------------------------------------------------------------------
A|--------------------------------------------------------------------------
E|--------------------------------------------------------------------------
Guitar 2 Chorus
e|--------------------------------------------------------------------------
B|--------------------------------------------------------------------------
G|--------------------------------------------------------------------------
D|--------------------------------------------------------------------------
A|--0-0-0-0-0-0-0-0-0-0-0-0-0-0-0-0-0-0-0-0-0-0-0-0-0--0--0--0--0-----------
E|--3-3-3-3-3-3-3-3/5-5-5\2-2-2/7-7-7-7-7-7-7-7/9-9-9/10-10 10 10-----------
Guitar 2 changes at the start of the last verse before distortion part
e|--------------------------------------------------------------------------
B|--------------------------------------------------------------------------
G|--------------------------------------------------------------------------
D|--------------------------------------------------------------------------
A|---0--0--0--0--0--0--0--0--0--0--0--0--0--0--0--0--0--0--0--0--0--0--0--0-
E|--17-17-17-17-17-17-17-15-15-15-15-15-15-12-12-12-12-12-12-14-14-14-14-14-
Guitar 2 to finish the verse
e|--------------------------------------------------------------------------
B|--------------------------------------------------------------------------
G|--------------------------------------------------------------------------
D|--------------------------------------------------------------------------
A|--0-0-0-0-0-0-0-0-0-0-0-0-0-0-0-0-0-0-0-0-0-0-0-0-0--0--0--0--0-----------
E|--3-3-3-3-3-3-3-3/5-5-5\2-2-2/7-7-7-7-7-7-7-7/9-9-9/10-10 10 10-----------
Guitars 1&2 Distortion Part
e|--------------------------------------------------------------------------
B|--------7*7*7*7*--------7*7*7*7*---------5*5*5*5*--------5*5*5*5*---------
G|--------7*7*7*7*--------7*7*7*7*---------5*5*5*5*--------5*5*5*5*---------
D|--3333--7*7*7*7*--3333--7*7*7*7*---7777--5*5*5*5*--7777--5*5*5*5*---------
A|--3333------------3333-------------7777------------7777-------------------
E|--3333------------3333-------------7777------------7777-------------------
Guitar 1 to the end
e|-121212121212-15151515151515----------------------------------------------
B|-131313131313-13131313131313----------------------------------------------
G|-141414141414-14141414141414----------------------------------------------
D|--------------------------------------------------------------------------
A|--------------------------------------------------------------------------
E|--------------------------------------------------------------------------
Guitar 2 to the end
e|--------------------------------------------------------------------------
B|--------------------------------------------------------------------------
G|--------------------------------------------------------------------------
D|--33333333-55555555-77777777-101010-9-9-9-7-7-----------------------------
A|--33333333-55555555-77777777--7-7-7-7-7-7-x-x-----------------------------
E|--33333333-55555555-77777777--7-7-7-7-7-7-7-7-----------------------------

===============================================================================
Comments