Thursday - War All The Time Chords & Tabs

 

War All The Time Chords & Tabs

Thursday Chords & Tabs

Version: 2 Type: Tab 0 ratings
1 star 2 stars 3 stars 4 stars 5 stars
comments

War All The Time Tab

-----------------------------------------------------------------------------
                        THURSDAY - WAR ALL THE TIME
-----------------------------------------------------------------------------

tabbed by: stellar_legs
e-mail: uncle_stellar@hotmail.com
tuning: Dropped D

Here's another fantastic song off of Thursday's breathtaking new album, War All the Time.
This is a surprisingly soft song, and my favorite. I also did this on one guitar,
because both parts are kind of murky, and it's hard to spot Guitar 2's role, though
there is one part on the Outro that is clear, and which I did tab. Enjoy.

* = Harmonics
/ = slide
h = Hammer om
p = Pull off

Intro
e---------15*-------------------------15*-----------------|
B--13*----14*---13*----13*-----13*----14*---13*----13*----|
G--14*----------12*------------14*----------12*-----------|
D---------------------------------------------------------|
A---------------------------------------------------------|
D---------------------------------------------------------|
(These harmonics are played very close to the metal nodes between each fret)

Intro (Cont.) (Very small amount of distortion)
e-----------------------------------------------------------------|
B--8~---6~---5~------------------------------8~---6~---5~---------|
G-----------------5~---4h5--4h5--4h5--4h5-------------------5~----|
D-----------------------------------------------------------------|
A-----------------------------------------------------------------|
D-----------------------------------------------------------------|

e--------------------------------|
B--------------------------------|
G---4h5--4h5--4h5--4h5---2~~~----|
D--------------------------------|
A--------------------------------|
D--------------------------------|

1st Chrous
e--------------------------------------------------------|
B-------8-----8-------8-----8----------------------------|
G------------------9-----9-------------------------------|
D--6h7-----7--------------------9h10--9h10--9h10--9h10---|
A--------------------------------------------------------|
D--------------------------------------------------------|
 Repeat until second Verse

2nd Verse
e------------------------------------------------------------|
B--13-13-13--12-12-12----------------------------------------|
G----------------------14-14-14--12-12-12----14-14--12-12----|
D------------------------------------------------------------|
A------------------------------------------------------------|
D------------------------------------------------------------|

Little strummed part before 2nd Chorus (listen carefully, it's there)
e-------------------------------|
B--5--5-5--5--5-5--5--5-5--5----|
G--5--5-5--5--5-5--5--5-5--5----|
D--3--3-3--3--3-3--3--3-3--3----|
A-------------------------------|
D-------------------------------|
[ Tab from: http://www.guitartabs.cc/tabs/t/thursday/war_all_the_time_tab_ver_2.html ]
2nd Chorus
e--------------------------15-15-13-13--------------------------15-15-13-13-|
B--14-14-14-14---------------------------14-14-14-14------------------------|
G---------------13-13-13------------------------------13-13-13--------------|
D---------------------------------------------------------------------------|
A---------------------------------------------------------------------------|
D---------------------------------------------------------------------------|

3rd Verse
e--15~---13~---12~---------------------------------------|
B--------------------13~---12h13--12h13--12h13--12h13----|
G--------------------------------------------------------|
D--------------------------------------------------------|
A--------------------------------------------------------|
D--------------------------------------------------------|

This is where some crucial 2nd Guitar parts come in. It's very straightforward stuff.

3rd Chrorus

Guitar 1
e-------------------------------------------------------------------------|
B-------------------------------------------------------------------------|
G-------------------------------------------------------------------------|
D--10h12--10h12--10h12--10h12--10h12--10h12--10h12--just keep repeating---|
A-------------------------------------------------------------------------|
D-------------------------------------------------------------------------|

Guitar 2
e------------------------------------------------------------------|
B--13-13-13-13-13-13-----------------------------------------------|
G---x--x--x--x--x--x---strummed in semi-fast up and down strokes---|
D--10-10-10-10-10-10-----------------------------------------------|
A------------------------------------------------------------------|
D------------------------------------------------------------------|

Outro (Distortion, oh yeah!)
Guitar 1
e------------13*-13*-13*-13*------------13*-13*-13*-13*---------|
B------------10*-10*-10*-10*------------10*-10*-10*-10*---------|
G---------------Guitar 2-------------------Guitar 2-------------|
D--3-3-3-3---------------------3-3-3-3--------------------------|
A--3-3-3-3---------------------3-3-3-3--------------------------|
D--3-3-3-3---------------------3-3-3-3--------------------------|

Outro (cont.)
e------------12*-12*-12*-12*------------12*-12*-12*-12*---|
B------------10*-10*-10*-10*------------10*-10*-10*-10*---|
G---------------Guitar 2-------------------Guitar 2-------|
D--7-7-7-7---------------------7-7-7-7--------------------|
A--7-7-7-7---------------------7-7-7-7--------------------|
D--7-7-7-7---------------------7-7-7-7--------------------

Outro (cont.)
Guitar 1 (distortion)
e----------------------------------------------------------|
B----------------------------------------------------------|
G----------------------------------------------------------|
D--3-3-3-3-3-3-3-3--5-5-5-5-5-5-5-5--7-7-7-7-7-7-7-7-7-7---|
A--3-3-3-3-3-3-3-3--5-5-5-5-5-5-5-5--7-7-7-7-7-7-7-7-7-7---|
D--3-3-3-3-3-3-3-3--5-5-5-5-5-5-5-5--7-7-7-7-7-7-7-7-7-7---|

Guitar 2 (distortion)
e--15-15-15-15-15-15---15-15-15-15-15-15--15-15-15-15-15-15----|
B--13-13-13-13-13-13---12-12-12-12-12-12--13-13-13-13-13-13----|
G-----------------------------------------14-14-14-14-14-14----|
D--------------------------------------------------------------|
A--------------------------------------------------------------|
D--------------------------------------------------------------|
   (trem. picking............................................)

Fin.
Comments