Thursday - Tomorrow Ill Be You Chords & Tabs

 

Tomorrow Ill Be You Chords & Tabs

Thursday Chords & Tabs

Version: 2 Type: Tab 0 ratings
1 star 2 stars 3 stars 4 stars 5 stars
comments

Tomorrow Ill Be You Tab

   
Drop D (D,A,D,G,B,E)
this tab is just for guitar one, and this is my first tab so i hope you like it


---7-------7--9h10--10-p9-9---------------12-----14--15p14--14-----
--7--7-7-7--7-----77--7--7---77\5-5/7---12--12-12--12-----12--12---
-4-----------------------------------------------------------------
-------------------------------------------------------------------
-------------------------------------------------------------------
-------------------------------------------------------------------


-----------------------------------------------------------------
-----------------------------------------------------------------
-----------------------------------------------------------------
-9-9999999--4-4444444--7-7777777-7-7777777-------1010101010\9-9-
-9-9999999--2-2222222--5-5555555-5-5555555--------8-8-8-8-8\7-7-
-9-9999999--2-2222222--5-5555555-5-5555555-(x2)---8-8-8-8-8\7-7-


---------------------------------------
---------------------------------------
---------------------------------------
-9-9-9-9p0h4-4-4-4p0h5-5-5-55-5-5-5-55-
-9-9-9-9p0h4-4-4-4p0h5-5-5-55-5-5-5-55-(x4)
-9-9-9-9p0h4-4-4-4p0h5-5-5-55-5-5-5-55-


---------------------------------------------------------
---------------------------------------------------------
---19--18--77/9h11-11-11\7-7---19--18--77/9h11-11/14-14--
-0---0-----------------------0---0-----------------------
-0---0-----------------------0---0-----------------------
-0---0-----------------------0---0-----------------------

t=tremelo picking
-----------------------------------------------
-------------------------------------------19t-
-19t\18t---9h11-11-11-11p9-99\7\6--19t/21t-----
-----------------------------------------------
-----------------------------------------------
-----------------------------------------------


---------------------------------------
---------------------------------------
-11111111111111-9999999-77777777777777-
--9-9-9-9-9-9-9\7777777\55555555555555-
--9-9-9-9-9-9-9\7777777\55555555555555-(x4)
--9-9-9-9-9-9-9\7777777\55555555555555-


---------------------------------------     ---
---------------------------------------     ---
---------------------------------------     ---
/9-9-9-9p0h4-4-4-4p0h5-5-5-55-5-5-5-55-     -9-
/9-9-9-9p0h4-4-4-4p0h5-5-5-55-5-5-5-55-(x2) -9-
/9-9-9-9p0h4-4-4-4p0h5-5-5-55-5-5-5-55-     -9-

[ Tab from: http://www.guitartabs.cc/tabs/t/thursday/tomorrow_ill_be_you_tab_ver_2.html ]
----------------------------------------------------------
-12-14-141414-7777h8p7h8p7h8--12-14-141414-7777h8p7h8p7h8-
----------------------------------------------------------
----------------------------------------------------------
----------------------------------------------------------(x2)  
----------------------------------------------------------
"that's the sound of music from another room"......


---------------------------------------
---------------------------------------
---------------------------------------
-9-9-9-9p0h4-4-4-4p0h5-5-5-55-5-5-5-55-
-9-9-9-9p0h4-4-4-4p0h5-5-5-55-5-5-5-55-
-9-9-9-9p0h4-4-4-4p0h5-5-5-55-5-5-5-55-


---------------------------------------------------------------
---------------------------------------------------------------
---------------------------------------------------------------
-9-9-9---4-4-4---5-5-5---5-5-5---9-9-9---4-4-4---5-5-5---5-5-5-
-9-9-9---4-4-4---5-5-5---5-5-5---9-9-9---4-4-4---5-5-5---5-5-5-
-9-9-9---4-4-4---5-5-5---5-5-5---9-9-9---4-4-4---5-5-5---5-5-5-


------------------------------------------------------
------------------------------------------------------
-111111111111/161616161616--111111111111/161616161616-
--x-x-x-x-x-x/-x-x-x-x-x-x---x-x-x-x-x-x/-x-x-x-x-x-x-
--9-9-9-9-9-9/141414141414---9-9-9-9-9-9/141414141414-(x2)
------------------------------------------------------


----------------------------------------------
----------------------------------------------
-9999999999\7777777777---9999999999\7777777777
-xxxxxxxxxx\xxxxxxxxxx---xxxxxxxxxx\xxxxxxxxxx
-7777777777\5555555555---7777777777\5555555555
----------------------------------------------


Kick back on the distortion here...with just the guitar playing at first
----------------------------------------
----------------------------------------
-9999999999999/1010101010\777777777777--
-xxxxxxxxxxxxx/-x-x-x-x-x\xxxxxxxxxxxx--
-7777777777777/-8-8-8-8-8\555555555555--(x2)
----------------------------------------


-----------------------------------------------------------------------
-----------------------------------------------------------------------
-99999999999999-777777777777---99999999999999-/1010101010-777777777777-
-77777777777777-555555555555---77777777777777-/-x-x-x-x-x-555555555555-
-77777777777777-555555555555---77777777777777-/-8-8-8-8-8-555555555555-
-77777777777777-555555555555---77777777777777-------------555555555555-


----------------------------------------
----------------------------------------
-11111111111111-9999999-77777777777777--
--9-9-9-9-9-9-9\7777777\55555555555555--
--9-9-9-9-9-9-9\7777777\55555555555555--
--9-9-9-9-9-9-9\7777777\55555555555555--(X2)


RING OUT ON
----
----
-11-
--9-
--9-
--9-
Comments